  0
SECTION
  2
HEADER
  9
$ACADVER
  1
AC1015
  9
$ACADMAINTVER
 70
    20
  9
$DWGCODEPAGE
  3
ANSI_1252
  9
$INSBASE
 10
0.359375
 20
0.0625
 30
0.0
  9
$EXTMIN
 10
1.703378505792674
 20
5.829850782288069
 30
-0.0015258207003583
  9
$EXTMAX
 10
8.468609977095628
 20
15.37502579322274
 30
0.0000000349246037
  9
$LIMMIN
 10
0.0
 20
0.0
  9
$LIMMAX
 10
10.654
 20
15.881
  9
$ORTHOMODE
 70
     1
  9
$REGENMODE
 70
     1
  9
$FILLMODE
 70
     1
  9
$QTEXTMODE
 70
     0
  9
$MIRRTEXT
 70
     0
  9
$LTSCALE
 40
0.25
  9
$ATTMODE
 70
     1
  9
$TEXTSIZE
 40
0.125
  9
$TRACEWID
 40
0.05
  9
$TEXTSTYLE
  7
ROMANS
  9
$CLAYER
  8
0
  9
$CELTYPE
  6
BYLAYER
  9
$CECOLOR
 62
   256
  9
$CELTSCALE
 40
1.0
  9
$DISPSILH
 70
     0
  9
$DIMSCALE
 40
1.0
  9
$DIMASZ
 40
0.18
  9
$DIMEXO
 40
0.0625
  9
$DIMDLI
 40
0.38
  9
$DIMRND
 40
0.0
  9
$DIMDLE
 40
0.0
  9
$DIMEXE
 40
0.18
  9
$DIMTP
 40
0.0
  9
$DIMTM
 40
0.0
  9
$DIMTXT
 40
0.18
  9
$DIMCEN
 40
0.09
  9
$DIMTSZ
 40
0.0
  9
$DIMTOL
 70
     0
  9
$DIMLIM
 70
     0
  9
$DIMTIH
 70
     1
  9
$DIMTOH
 70
     1
  9
$DIMSE1
 70
     0
  9
$DIMSE2
 70
     0
  9
$DIMTAD
 70
     0
  9
$DIMZIN
 70
     0
  9
$DIMBLK
  1

  9
$DIMASO
 70
     1
  9
$DIMSHO
 70
     0
  9
$DIMPOST
  1

  9
$DIMAPOST
  1

  9
$DIMALT
 70
     0
  9
$DIMALTD
 70
     2
  9
$DIMALTF
 40
25.4
  9
$DIMLFAC
 40
1.0
  9
$DIMTOFL
 70
     0
  9
$DIMTVP
 40
0.0
  9
$DIMTIX
 70
     0
  9
$DIMSOXD
 70
     0
  9
$DIMSAH
 70
     0
  9
$DIMBLK1
  1

  9
$DIMBLK2
  1

  9
$DIMSTYLE
  2
STANDARD
  9
$DIMCLRD
 70
     0
  9
$DIMCLRE
 70
     0
  9
$DIMCLRT
 70
     0
  9
$DIMTFAC
 40
1.0
  9
$DIMGAP
 40
0.09
  9
$DIMJUST
 70
     0
  9
$DIMSD1
 70
     0
  9
$DIMSD2
 70
     0
  9
$DIMTOLJ
 70
     1
  9
$DIMTZIN
 70
     0
  9
$DIMALTZ
 70
     0
  9
$DIMALTTZ
 70
     0
  9
$DIMUPT
 70
     0
  9
$DIMDEC
 70
     4
  9
$DIMTDEC
 70
     4
  9
$DIMALTU
 70
     2
  9
$DIMALTTD
 70
     2
  9
$DIMTXSTY
  7
STANDARD
  9
$DIMAUNIT
 70
     0
  9
$DIMADEC
 70
     0
  9
$DIMALTRND
 40
0.0
  9
$DIMAZIN
 70
     0
  9
$DIMDSEP
 70
    46
  9
$DIMATFIT
 70
     3
  9
$DIMFRAC
 70
     0
  9
$DIMLDRBLK
  1

  9
$DIMLUNIT
 70
     2
  9
$DIMLWD
 70
    -2
  9
$DIMLWE
 70
    -2
  9
$DIMTMOVE
 70
     0
  9
$LUNITS
 70
     2
  9
$LUPREC
 70
     4
  9
$SKETCHINC
 40
0.1
  9
$FILLETRAD
 40
0.0
  9
$AUNITS
 70
     0
  9
$AUPREC
 70
     0
  9
$MENU
  1
ACAD
  9
$ELEVATION
 40
0.0
  9
$PELEVATION
 40
0.0
  9
$THICKNESS
 40
0.0
  9
$LIMCHECK
 70
     0
  9
$CHAMFERA
 40
0.0
  9
$CHAMFERB
 40
0.0
  9
$CHAMFERC
 40
0.0
  9
$CHAMFERD
 40
0.0
  9
$SKPOLY
 70
     0
  9
$TDCREATE
 40
2449270.545578588
  9
$TDUCREATE
 40
2449270.753911922
  9
$TDUPDATE
 40
2453641.583856157
  9
$TDUUPDATE
 40
2453641.792189491
  9
$TDINDWG
 40
0.4817020718
  9
$TDUSRTIMER
 40
0.4817020718
  9
$USRTIMER
 70
     1
  9
$ANGBASE
 50
0.0
  9
$ANGDIR
 70
     0
  9
$PDMODE
 70
     3
  9
$PDSIZE
 40
0.1
  9
$PLINEWID
 40
0.01
  9
$SPLFRAME
 70
     0
  9
$SPLINETYPE
 70
     6
  9
$SPLINESEGS
 70
     8
  9
$HANDSEED
  5
A13
  9
$SURFTAB1
 70
     6
  9
$SURFTAB2
 70
     6
  9
$SURFTYPE
 70
     6
  9
$SURFU
 70
     6
  9
$SURFV
 70
     6
  9
$UCSBASE
  2

  9
$UCSNAME
  2

  9
$UCSORG
 10
0.0
 20
0.0
 30
0.0
  9
$UCSXDIR
 10
1.0
 20
0.0
 30
0.0
  9
$UCSYDIR
 10
0.0
 20
1.0
 30
0.0
  9
$UCSORTHOREF
  2

  9
$UCSORTHOVIEW
 70
     0
  9
$UCSORGTOP
 10
0.0
 20
0.0
 30
0.0
  9
$UCSORGBOTTOM
 10
0.0
 20
0.0
 30
0.0
  9
$UCSORGLEFT
 10
0.0
 20
0.0
 30
0.0
  9
$UCSORGRIGHT
 10
0.0
 20
0.0
 30
0.0
  9
$UCSORGFRONT
 10
0.0
 20
0.0
 30
0.0
  9
$UCSORGBACK
 10
0.0
 20
0.0
 30
0.0
  9
$PUCSBASE
  2

  9
$PUCSNAME
  2

  9
$PUCSORG
 10
0.0
 20
0.0
 30
0.0
  9
$PUCSXDIR
 10
1.0
 20
0.0
 30
0.0
  9
$PUCSYDIR
 10
0.0
 20
1.0
 30
0.0
  9
$PUCSORTHOREF
  2

  9
$PUCSORTHOVIEW
 70
     0
  9
$PUCSORGTOP
 10
0.0
 20
0.0
 30
0.0
  9
$PUCSORGBOTTOM
 10
0.0
 20
0.0
 30
0.0
  9
$PUCSORGLEFT
 10
0.0
 20
0.0
 30
0.0
  9
$PUCSORGRIGHT
 10
0.0
 20
0.0
 30
0.0
  9
$PUCSORGFRONT
 10
0.0
 20
0.0
 30
0.0
  9
$PUCSORGBACK
 10
0.0
 20
0.0
 30
0.0
  9
$USERI1
 70
     0
  9
$USERI2
 70
     0
  9
$USERI3
 70
     0
  9
$USERI4
 70
     0
  9
$USERI5
 70
     0
  9
$USERR1
 40
0.0
  9
$USERR2
 40
0.0
  9
$USERR3
 40
0.0
  9
$USERR4
 40
0.0
  9
$USERR5
 40
0.0
  9
$WORLDVIEW
 70
     1
  9
$SHADEDGE
 70
     3
  9
$SHADEDIF
 70
    70
  9
$TILEMODE
 70
     1
  9
$MAXACTVP
 70
    16
  9
$PINSBASE
 10
0.0
 20
0.0
 30
0.0
  9
$PLIMCHECK
 70
     0
  9
$PEXTMIN
 10
1.000000000000000E+20
 20
1.000000000000000E+20
 30
1.000000000000000E+20
  9
$PEXTMAX
 10
-1.000000000000000E+20
 20
-1.000000000000000E+20
 30
-1.000000000000000E+20
  9
$PLIMMIN
 10
0.0
 20
0.0
  9
$PLIMMAX
 10
12.0
 20
9.0
  9
$UNITMODE
 70
     0
  9
$VISRETAIN
 70
     0
  9
$PLINEGEN
 70
     0
  9
$PSLTSCALE
 70
     0
  9
$TREEDEPTH
 70
  3020
  9
$CMLSTYLE
  2
STANDARD
  9
$CMLJUST
 70
     0
  9
$CMLSCALE
 40
1.0
  9
$PROXYGRAPHICS
 70
     1
  9
$MEASUREMENT
 70
     0
  9
$CELWEIGHT
370
    -1
  9
$ENDCAPS
280
     0
  9
$JOINSTYLE
280
     0
  9
$LWDISPLAY
290
     0
  9
$INSUNITS
 70
     0
  9
$HYPERLINKBASE
  1

  9
$STYLESHEET
  1

  9
$XEDIT
290
     1
  9
$CEPSNTYPE
380
     0
  9
$PSTYLEMODE
290
     1
  9
$FINGERPRINTGUID
  2
{4B4D43B9-B9FD-4F1C-AB5E-95194636E825}
  9
$VERSIONGUID
  2
{51B13BF0-7929-46B2-BDB8-F4DFF5A33080}
  9
$EXTNAMES
290
     1
  9
$PSVPSCALE
 40
0.0
  9
$OLESTARTUP
290
     0
  0
ENDSEC
  0
SECTION
  2
CLASSES
  0
CLASS
  1
ACDBDICTIONARYWDFLT
  2
AcDbDictionaryWithDefault
  3
ObjectDBX Classes
 90
        0
280
     0
281
     0
  0
CLASS
  1
TABLESTYLE
  2
AcDbTableStyle
  3
ObjectDBX Classes
 90
     2047
280
     0
281
     0
  0
CLASS
  1
DICTIONARYVAR
  2
AcDbDictionaryVar
  3
ObjectDBX Classes
 90
        0
280
     0
281
     0
  0
CLASS
  1
ACDBPLACEHOLDER
  2
AcDbPlaceHolder
  3
ObjectDBX Classes
 90
        0
280
     0
281
     0
  0
CLASS
  1
LAYOUT
  2
AcDbLayout
  3
ObjectDBX Classes
 90
        0
280
     0
281
     0
  0
ENDSEC
  0
SECTION
  2
TABLES
  0
TABLE
  2
VPORT
  5
8
330
0
100
AcDbSymbolTable
 70
     2
  0
VPORT
  5
A0C
330
8
100
AcDbSymbolTableRecord
100
AcDbViewportTableRecord
  2
*Active
 70
     0
 10
0.0
 20
0.0
 11
1.0
 21
1.0
 12
5.085994241444151
 22
10.6024382877554
 13
0.0
 23
0.0
 14
0.001
 24
0.001
 15
1.0
 25
1.0
 16
0.0
 26
0.0
 36
1.0
 17
0.0
 27
0.0
 37
0.0
 40
9.661108310662623
 41
1.385395537525355
 42
50.0
 43
0.0
 44
0.0
 50
0.0
 51
0.0
 71
     0
 72
   100
 73
     1
 74
     0
 75
     1
 76
     0
 77
     0
 78
     0
281
     0
 65
     1
110
0.0
120
0.0
130
0.0
111
1.0
121
0.0
131
0.0
112
0.0
122
1.0
132
0.0
 79
     0
146
0.0
  0
ENDTAB
  0
TABLE
  2
LTYPE
  5
5
330
0
100
AcDbSymbolTable
 70
     2
  0
LTYPE
  5
12
330
5
100
AcDbSymbolTableRecord
100
AcDbLinetypeTableRecord
  2
BYBLOCK
 70
     0
  3

 72
    65
 73
     0
 40
0.0
  0
LTYPE
  5
13
330
5
100
AcDbSymbolTableRecord
100
AcDbLinetypeTableRecord
  2
BYLAYER
 70
     0
  3

 72
    65
 73
     0
 40
0.0
  0
LTYPE
  5
14
330
5
100
AcDbSymbolTableRecord
100
AcDbLinetypeTableRecord
  2
CONTINUOUS
 70
     0
  3
Solid line
 72
    65
 73
     0
 40
0.0
  0
LTYPE
  5
23
330
5
100
AcDbSymbolTableRecord
100
AcDbLinetypeTableRecord
  2
DASHED
 70
     0
  3
__ __ __ __ __ __ __ __ __ __ __ __ __ __ __ __
 72
    65
 73
     2
 40
0.75
 49
0.5
 74
     0
 49
-0.25
 74
     0
  0
ENDTAB
  0
TABLE
  2
LAYER
  5
2
330
0
100
AcDbSymbolTable
 70
     3
  0
LAYER
  5
F
330
2
100
AcDbSymbolTableRecord
100
AcDbLayerTableRecord
  2
0
 70
     0
 62
     7
  6
CONTINUOUS
370
    -3
390
9FC
  0
LAYER
  5
2A
330
2
100
AcDbSymbolTableRecord
100
AcDbLayerTableRecord
  2
TEXT
 70
     0
 62
     2
  6
CONTINUOUS
370
    -3
390
9FC
  0
LAYER
  5
30
330
2
100
AcDbSymbolTableRecord
100
AcDbLayerTableRecord
  2
DASH
 70
     0
 62
     2
  6
DASHED
370
    -3
390
9FC
  0
ENDTAB
  0
TABLE
  2
STYLE
  5
3
330
0
100
AcDbSymbolTable
 70
     2
  0
STYLE
  5
10
330
3
100
AcDbSymbolTableRecord
100
AcDbTextStyleTableRecord
  2
STANDARD
 70
     0
 40
0.0
 41
1.0
 50
0.0
 71
     0
 42
0.2
  3
txt
  4

  0
STYLE
  5
1D
330
3
100
AcDbSymbolTableRecord
100
AcDbTextStyleTableRecord
  2
ROMANS
 70
     0
 40
0.0
 41
0.8
 50
0.0
 71
     0
 42
0.125
  3
ROMANS
  4

  0
ENDTAB
  0
TABLE
  2
VIEW
  5
6
330
0
100
AcDbSymbolTable
 70
     0
  0
ENDTAB
  0
TABLE
  2
UCS
  5
7
330
0
100
AcDbSymbolTable
 70
     0
  0
ENDTAB
  0
TABLE
  2
APPID
  5
9
330
0
100
AcDbSymbolTable
 70
     1
  0
APPID
  5
11
330
9
100
AcDbSymbolTableRecord
100
AcDbRegAppTableRecord
  2
ACAD
 70
     0
  0
ENDTAB
  0
TABLE
  2
DIMSTYLE
  5
A
330
0
100
AcDbSymbolTable
 70
     1
100
AcDbDimStyleTable
 71
     0
  0
DIMSTYLE
105
26C
330
A
100
AcDbSymbolTableRecord
100
AcDbDimStyleTableRecord
  2
STANDARD
 70
     0
340
10
  0
ENDTAB
  0
TABLE
  2
BLOCK_RECORD
  5
1
330
0
100
AcDbSymbolTable
 70
     2
  0
BLOCK_RECORD
  5
18
330
1
100
AcDbSymbolTableRecord
100
AcDbBlockTableRecord
  2
*MODEL_SPACE
340
A03
  0
BLOCK_RECORD
  5
15
330
1
100
AcDbSymbolTableRecord
100
AcDbBlockTableRecord
  2
*PAPER_SPACE
340
A04
  0
BLOCK_RECORD
  5
4D3
330
1
100
AcDbSymbolTableRecord
100
AcDbBlockTableRecord
  2
PCON_5
340
0
102
{BLKREFS
331
4FF
331
504
102
}
  0
BLOCK_RECORD
  5
573
330
1
100
AcDbSymbolTableRecord
100
AcDbBlockTableRecord
  2
DOT
340
0
102
{BLKREFS
331
57A
331
5EF
102
}
  0
ENDTAB
  0
ENDSEC
  0
SECTION
  2
BLOCKS
  0
BLOCK
  5
33
330
18
100
AcDbEntity
  8
0
100
AcDbBlockBegin
  2
*MODEL_SPACE
 70
     0
 10
0.0
 20
0.0
 30
0.0
  3
*MODEL_SPACE
  1

  0
ENDBLK
  5
34
330
18
100
AcDbEntity
  8
0
100
AcDbBlockEnd
  0
BLOCK
  5
31
330
15
100
AcDbEntity
 67
     1
  8
0
100
AcDbBlockBegin
  2
*PAPER_SPACE
 70
     0
 10
0.0
 20
0.0
 30
0.0
  3
*PAPER_SPACE
  1

  0
ENDBLK
  5
32
330
15
100
AcDbEntity
 67
     1
  8
0
100
AcDbBlockEnd
  0
BLOCK
  5
4FD
330
4D3
100
AcDbEntity
  8
0
100
AcDbBlockBegin
  2
PCON_5
 70
     0
 10
0.0
 20
0.0
 30
0.0
  3
PCON_5
  1

  0
LINE
  5
4D4
330
4D3
100
AcDbEntity
  8
0
100
AcDbLine
 10
0.0000000000000029
 20
0.9919999999999992
 30
0.0
 11
0.0
 21
0.0
 31
0.0
  0
LINE
  5
4D5
330
4D3
100
AcDbEntity
  8
0
100
AcDbLine
 10
-0.4894999999999996
 20
0.9919999999999992
 30
0.0
 11
-0.4894999999999996
 21
0.0
 31
0.0
  0
LINE
  5
4D6
330
4D3
100
AcDbEntity
  8
0
100
AcDbLine
 10
0.0
 20
0.0
 30
0.0
 11
-0.4894999999999996
 21
0.0
 31
0.0
  0
LINE
  5
4D7
330
4D3
100
AcDbEntity
  8
0
100
AcDbLine
 10
-0.0000000000000238
 20
0.9919999999999991
 30
0.0
 11
-0.4895000000000234
 21
0.9919999999999991
 31
0.0
  0
LINE
  5
4D8
330
4D3
100
AcDbEntity
  8
0
100
AcDbLine
 10
-0.4234999999999978
 20
0.9919999999999992
 30
0.0
 11
-0.4235000000000007
 21
0.0000000000000013
 31
0.0
  0
CIRCLE
  5
4D9
330
4D3
100
AcDbEntity
  8
0
100
AcDbCircle
 10
-0.2605000000000004
 20
0.1020000000000003
 30
0.0
 40
0.077
  0
CIRCLE
  5
4DA
330
4D3
100
AcDbEntity
  8
0
100
AcDbCircle
 10
-0.2605000000000004
 20
0.1020000000000003
 30
0.0
 40
0.075
  0
LINE
  5
4DB
330
4D3
100
AcDbEntity
  8
0
100
AcDbLine
 10
-0.1897893218813458
 20
0.1270000000000002
 30
0.0
 11
-0.331210678118655
 21
0.1270000000000002
 31
0.0
  0
LINE
  5
4DC
330
4D3
100
AcDbEntity
  8
0
100
AcDbLine
 10
-0.1897893218813458
 20
0.077
 30
0.0
 11
-0.331210678118655
 21
0.0770000000000004
 31
0.0
  0
LINE
  5
4DD
330
4D3
100
AcDbEntity
  8
0
100
AcDbLine
 10
-0.331210678118655
 20
0.0770000000000004
 30
0.0
 11
-0.331210678118655
 21
0.1269999999999998
 31
0.0
  0
LINE
  5
4DE
330
4D3
100
AcDbEntity
  8
0
100
AcDbLine
 10
-0.1897893218813458
 20
0.1270000000000002
 30
0.0
 11
-0.1897893218813458
 21
0.0769999999999995
 31
0.0
  0
SOLID
  5
4DF
330
4D3
100
AcDbEntity
  8
0
100
AcDbTrace
 10
-0.1897893218813458
 20
0.1270000000000002
 30
0.0
 11
-0.3312106781186532
 21
0.1270000000000033
 31
0.0
 12
-0.1897893218813458
 22
0.077
 32
0.0
 13
-0.3312106781186532
 23
0.0769999999999973
 33
0.0
  0
SOLID
  5
4E0
330
4D3
100
AcDbEntity
  8
0
100
AcDbTrace
 10
-0.1897893218813458
 20
0.3239999999999994
 30
0.0
 11
-0.3312106781186532
 21
0.3240000000000025
 31
0.0
 12
-0.1897893218813458
 22
0.2739999999999991
 32
0.0
 13
-0.3312106781186532
 23
0.2739999999999965
 33
0.0
  0
LINE
  5
4E1
330
4D3
100
AcDbEntity
  8
0
100
AcDbLine
 10
-0.1897893218813458
 20
0.3239999999999994
 30
0.0
 11
-0.1897893218813458
 21
0.2739999999999987
 31
0.0
  0
LINE
  5
4E2
330
4D3
100
AcDbEntity
  8
0
100
AcDbLine
 10
-0.331210678118655
 20
0.2739999999999996
 30
0.0
 11
-0.331210678118655
 21
0.3239999999999989
 31
0.0
  0
LINE
  5
4E3
330
4D3
100
AcDbEntity
  8
0
100
AcDbLine
 10
-0.1897893218813458
 20
0.2739999999999991
 30
0.0
 11
-0.331210678118655
 21
0.2739999999999996
 31
0.0
  0
LINE
  5
4E4
330
4D3
100
AcDbEntity
  8
0
100
AcDbLine
 10
-0.1897893218813458
 20
0.3239999999999994
 30
0.0
 11
-0.331210678118655
 21
0.3239999999999994
 31
0.0
  0
CIRCLE
  5
4E5
330
4D3
100
AcDbEntity
  8
0
100
AcDbCircle
 10
-0.2605000000000004
 20
0.2989999999999995
 30
0.0
 40
0.075
  0
CIRCLE
  5
4E6
330
4D3
100
AcDbEntity
  8
0
100
AcDbCircle
 10
-0.2605000000000004
 20
0.2989999999999995
 30
0.0
 40
0.077
  0
CIRCLE
  5
4E7
330
4D3
100
AcDbEntity
  8
0
100
AcDbCircle
 10
-0.2605000000000004
 20
0.4959999999999991
 30
0.0
 40
0.077
  0
CIRCLE
  5
4E8
330
4D3
100
AcDbEntity
  8
0
100
AcDbCircle
 10
-0.2605000000000004
 20
0.4959999999999991
 30
0.0
 40
0.075
  0
LINE
  5
4E9
330
4D3
100
AcDbEntity
  8
0
100
AcDbLine
 10
-0.1897893218813458
 20
0.5209999999999991
 30
0.0
 11
-0.331210678118655
 21
0.5209999999999991
 31
0.0
  0
LINE
  5
4EA
330
4D3
100
AcDbEntity
  8
0
100
AcDbLine
 10
-0.1897893218813458
 20
0.4709999999999988
 30
0.0
 11
-0.331210678118655
 21
0.4709999999999992
 31
0.0
  0
LINE
  5
4EB
330
4D3
100
AcDbEntity
  8
0
100
AcDbLine
 10
-0.331210678118655
 20
0.4709999999999992
 30
0.0
 11
-0.331210678118655
 21
0.5209999999999986
 31
0.0
  0
LINE
  5
4EC
330
4D3
100
AcDbEntity
  8
0
100
AcDbLine
 10
-0.1897893218813458
 20
0.5209999999999991
 30
0.0
 11
-0.1897893218813458
 21
0.4709999999999983
 31
0.0
  0
SOLID
  5
4ED
330
4D3
100
AcDbEntity
  8
0
100
AcDbTrace
 10
-0.1897893218813458
 20
0.5209999999999991
 30
0.0
 11
-0.3312106781186532
 21
0.5210000000000022
 31
0.0
 12
-0.1897893218813458
 22
0.4709999999999988
 32
0.0
 13
-0.3312106781186532
 23
0.4709999999999961
 33
0.0
  0
CIRCLE
  5
4EE
330
4D3
100
AcDbEntity
  8
0
100
AcDbCircle
 10
-0.2605000000000004
 20
0.8969999999999993
 30
0.0
 40
0.077
  0
CIRCLE
  5
4EF
330
4D3
100
AcDbEntity
  8
0
100
AcDbCircle
 10
-0.2605000000000004
 20
0.8969999999999993
 30
0.0
 40
0.075
  0
LINE
  5
4F0
330
4D3
100
AcDbEntity
  8
0
100
AcDbLine
 10
-0.1897893218813458
 20
0.9219999999999991
 30
0.0
 11
-0.331210678118655
 21
0.9219999999999991
 31
0.0
  0
LINE
  5
4F1
330
4D3
100
AcDbEntity
  8
0
100
AcDbLine
 10
-0.1897893218813458
 20
0.8719999999999989
 30
0.0
 11
-0.331210678118655
 21
0.8719999999999995
 31
0.0
  0
SOLID
  5
4F2
330
4D3
100
AcDbEntity
  8
0
100
AcDbTrace
 10
-0.1897893218813458
 20
0.9219999999999991
 30
0.0
 11
-0.3312106781186532
 21
0.9220000000000023
 31
0.0
 12
-0.1897893218813458
 22
0.8719999999999989
 32
0.0
 13
-0.3312106781186532
 23
0.8719999999999963
 33
0.0
  0
SOLID
  5
4F3
330
4D3
100
AcDbEntity
  8
0
100
AcDbTrace
 10
-0.1897893218813458
 20
0.7250000000000001
 30
0.0
 11
-0.3312106781186532
 21
0.7250000000000032
 31
0.0
 12
-0.1897893218813458
 22
0.6749999999999999
 32
0.0
 13
-0.3312106781186532
 23
0.6749999999999972
 33
0.0
  0
LINE
  5
4F4
330
4D3
100
AcDbEntity
  8
0
100
AcDbLine
 10
-0.1897893218813458
 20
0.6749999999999999
 30
0.0
 11
-0.331210678118655
 21
0.6750000000000003
 31
0.0
  0
LINE
  5
4F5
330
4D3
100
AcDbEntity
  8
0
100
AcDbLine
 10
-0.1897893218813458
 20
0.7250000000000001
 30
0.0
 11
-0.331210678118655
 21
0.7250000000000001
 31
0.0
  0
CIRCLE
  5
4F6
330
4D3
100
AcDbEntity
  8
0
100
AcDbCircle
 10
-0.2605000000000004
 20
0.7000000000000002
 30
0.0
 40
0.075
  0
CIRCLE
  5
4F7
330
4D3
100
AcDbEntity
  8
0
100
AcDbCircle
 10
-0.2605000000000004
 20
0.7000000000000002
 30
0.0
 40
0.077
  0
LINE
  5
4F8
330
4D3
100
AcDbEntity
  8
0
100
AcDbLine
 10
-0.331210678118655
 20
0.8719999999999995
 30
0.0
 11
-0.331210678118655
 21
0.9219999999999988
 31
0.0
  0
LINE
  5
4F9
330
4D3
100
AcDbEntity
  8
0
100
AcDbLine
 10
-0.331210678118655
 20
0.6750000000000003
 30
0.0
 11
-0.331210678118655
 21
0.7249999999999997
 31
0.0
  0
LINE
  5
4FA
330
4D3
100
AcDbEntity
  8
0
100
AcDbLine
 10
-0.1897893218813458
 20
0.9219999999999991
 30
0.0
 11
-0.1897893218813458
 21
0.8719999999999984
 31
0.0
  0
LINE
  5
4FB
330
4D3
100
AcDbEntity
  8
0
100
AcDbLine
 10
-0.1897893218813458
 20
0.7250000000000001
 30
0.0
 11
-0.1897893218813458
 21
0.6749999999999994
 31
0.0
  0
TEXT
  5
4FC
330
4D3
100
AcDbEntity
  8
0
100
AcDbText
 10
-0.1878999785308426
 20
0.0041666666666667
 30
0.0
 40
0.0125
  1
C:\MS\PCON_5.DWG
 72
     2
 11
-0.0045666451975093
 21
0.0
 31
0.0
100
AcDbText
 73
     1
  0
ENDBLK
  5
4FE
330
4D3
100
AcDbEntity
  8
0
100
AcDbBlockEnd
  0
BLOCK
  5
578
330
573
100
AcDbEntity
  8
0
100
AcDbBlockBegin
  2
DOT
 70
     0
 10
0.0
 20
0.0
 30
0.0
  3
DOT
  1

  0
CIRCLE
  5
574
330
573
100
AcDbEntity
  8
0
100
AcDbCircle
 10
0.0
 20
0.0
 30
0.0
 40
0.0213
  0
CIRCLE
  5
575
330
573
100
AcDbEntity
  8
0
100
AcDbCircle
 10
0.0
 20
0.0
 30
0.0
 40
0.0113
  0
LINE
  5
576
330
573
100
AcDbEntity
  8
0
100
AcDbLine
 10
-0.001
 20
0.0
 30
0.0
 11
0.001
 21
0.0
 31
0.0
  0
LINE
  5
577
330
573
100
AcDbEntity
  8
0
100
AcDbLine
 10
0.0
 20
-0.001
 30
0.0
 11
0.0
 21
0.001
 31
0.0
  0
ENDBLK
  5
579
330
573
100
AcDbEntity
  8
0
100
AcDbBlockEnd
  0
ENDSEC
  0
SECTION
  2
ENTITIES
  0
LINE
  5
3C
330
18
100
AcDbEntity
  8
0
100
AcDbLine
 10
1.709687499999999
 20
14.8125
 30
0.0
 11
3.256562499999999
 21
14.8125
 31
0.0
  0
LINE
  5
3D
330
18
100
AcDbEntity
  8
0
100
AcDbLine
 10
1.709687499999999
 20
6.156249999999996
 30
0.0
 11
1.709687499999999
 21
14.8125
 31
0.0
  0
LINE
  5
3F
330
18
100
AcDbEntity
  8
0
100
AcDbLine
 10
3.256562499999999
 20
14.8125
 30
0.0
 11
3.256562500000001
 21
6.156249999999996
 31
0.0
  0
LINE
  5
40
330
18
100
AcDbEntity
  8
0
100
AcDbLine
 10
3.506562499999999
 20
11.28125
 30
0.0
 11
3.506562499999999
 21
11.03125
 31
0.0
  0
LINE
  5
41
330
18
100
AcDbEntity
  8
0
100
AcDbLine
 10
3.256562499999999
 20
11.28125
 30
0.0
 11
3.506562499999999
 21
11.28125
 31
0.0
  0
LINE
  5
42
330
18
100
AcDbEntity
  8
0
100
AcDbLine
 10
3.256562499999999
 20
11.03125
 30
0.0
 11
3.506562499999999
 21
11.03125
 31
0.0
  0
TEXT
  5
8C
330
18
100
AcDbEntity
  8
TEXT
100
AcDbText
 10
2.664300595238094
 20
9.593749999999998
 30
0.0
 40
0.125
  1
OUT2
 41
0.8
 51
10.0
  7
ROMANS
100
AcDbText
  0
TEXT
  5
8D
330
18
100
AcDbEntity
  8
TEXT
100
AcDbText
 10
2.664300595238094
 20
9.093749999999998
 30
0.0
 40
0.125
  1
OUT3
 41
0.8
 51
10.0
  7
ROMANS
100
AcDbText
  0
LINE
  5
8E
330
18
100
AcDbEntity
  8
0
100
AcDbLine
 10
3.506562499999999
 20
10.15625
 30
0.0
 11
4.256562499999999
 21
10.15625
 31
0.0
  0
LINE
  5
8F
330
18
100
AcDbEntity
  8
0
100
AcDbLine
 10
4.631562499999999
 20
10.15625
 30
0.0
 11
7.104962499999999
 21
10.15625
 31
0.0
  0
LINE
  5
90
330
18
100
AcDbEntity
  8
0
100
AcDbLine
 10
3.506562499999999
 20
9.656249999999998
 30
0.0
 11
4.256562499999999
 21
9.656249999999998
 31
0.0
  0
LINE
  5
91
330
18
100
AcDbEntity
  8
0
100
AcDbLine
 10
3.506562499999999
 20
9.156249999999998
 30
0.0
 11
4.256562499999999
 21
9.156249999999998
 31
0.0
  0
LINE
  5
92
330
18
100
AcDbEntity
  8
0
100
AcDbLine
 10
4.631562499999999
 20
9.156249999999998
 30
0.0
 11
7.104962499999999
 21
9.156249999999998
 31
0.0
  0
LINE
  5
93
330
18
100
AcDbEntity
  8
0
100
AcDbLine
 10
3.506562499999999
 20
8.656249999999998
 30
0.0
 11
4.256562499999999
 21
8.656249999999998
 31
0.0
  0
LINE
  5
94
330
18
100
AcDbEntity
  8
0
100
AcDbLine
 10
4.631562499999999
 20
8.656249999999998
 30
0.0
 11
7.104962499999999
 21
8.656249999999998
 31
0.0
  0
LINE
  5
9E
330
18
100
AcDbEntity
  8
0
100
AcDbLine
 10
8.194062499999999
 20
10.5625
 30
0.0
 11
8.194062499999997
 21
6.65625
 31
0.0
  0
TEXT
  5
A0
330
18
100
AcDbEntity
  8
TEXT
100
AcDbText
 10
1.923229166666666
 20
15.25
 30
0.0
 40
0.125
  1
BLOCK OUTPUT
 41
0.8
  7
ROMANS
 72
     4
 11
2.506562499999999
 21
15.3125
 31
0.0
100
AcDbText
  0
TEXT
  5
A1
330
18
100
AcDbEntity
  8
TEXT
100
AcDbText
 10
1.930372023809523
 20
15.047619
 30
0.0
 40
0.125
  1
24VDC OUTPUT
 41
0.8
  7
ROMANS
 72
     4
 11
2.506562499999999
 21
15.110119
 31
0.0
100
AcDbText
  0
TEXT
  5
A2
330
18
100
AcDbEntity
  8
TEXT
100
AcDbText
 10
1.920848214285713
 20
14.845238
 30
0.0
 40
0.125
  1
503-25908-01
 41
0.8
  7
ROMANS
 72
     4
 11
2.506562499999999
 21
14.907738
 31
0.0
100
AcDbText
  0
LINE
  5
117
330
18
100
AcDbEntity
  8
0
100
AcDbLine
 10
3.506562499999999
 20
10.65625
 30
0.0
 11
8.006562499999997
 21
10.65624999999999
 31
0.0
  0
TEXT
  5
118
330
18
100
AcDbEntity
  8
TEXT
100
AcDbText
 10
2.659538690476189
 20
8.593749999999998
 30
0.0
 40
0.125
  1
OUT4
 41
0.8
 51
10.0
  7
ROMANS
100
AcDbText
  0
LINE
  5
121
330
18
100
AcDbEntity
  8
0
100
AcDbLine
 10
8.194062500000001
 20
10.15525
 30
0.0
 11
8.194062500000001
 21
10.15725
 31
0.0
  0
LINE
  5
122
330
18
100
AcDbEntity
  8
0
100
AcDbLine
 10
8.1950625
 20
10.15625
 30
0.0
 11
8.193062500000001
 21
10.15625
 31
0.0
  0
CIRCLE
  5
123
330
18
100
AcDbEntity
  8
0
100
AcDbCircle
 10
8.194062500000001
 20
10.15625
 30
0.0
 40
0.0113
  0
CIRCLE
  5
124
330
18
100
AcDbEntity
  8
0
100
AcDbCircle
 10
8.194062500000001
 20
10.15625
 30
0.0
 40
0.0213
  0
LINE
  5
125
330
18
100
AcDbEntity
  8
0
100
AcDbLine
 10
8.194062500000001
 20
9.15525
 30
0.0
 11
8.194062500000001
 21
9.157249999999999
 31
0.0
  0
LINE
  5
126
330
18
100
AcDbEntity
  8
0
100
AcDbLine
 10
8.1950625
 20
9.15625
 30
0.0
 11
8.193062500000001
 21
9.15625
 31
0.0
  0
CIRCLE
  5
127
330
18
100
AcDbEntity
  8
0
100
AcDbCircle
 10
8.194062500000001
 20
9.15625
 30
0.0
 40
0.0113
  0
CIRCLE
  5
128
330
18
100
AcDbEntity
  8
0
100
AcDbCircle
 10
8.194062500000001
 20
9.15625
 30
0.0
 40
0.0213
  0
LINE
  5
131
330
18
100
AcDbEntity
  8
0
100
AcDbLine
 10
8.194062500000001
 20
8.655250000000002
 30
0.0
 11
8.194062500000001
 21
8.657250000000001
 31
0.0
  0
LINE
  5
132
330
18
100
AcDbEntity
  8
0
100
AcDbLine
 10
8.1950625
 20
8.656250000000001
 30
0.0
 11
8.193062500000001
 21
8.656250000000001
 31
0.0
  0
CIRCLE
  5
133
330
18
100
AcDbEntity
  8
0
100
AcDbCircle
 10
8.194062500000001
 20
8.656250000000001
 30
0.0
 40
0.0113
  0
CIRCLE
  5
134
330
18
100
AcDbEntity
  8
0
100
AcDbCircle
 10
8.194062500000001
 20
8.656250000000001
 30
0.0
 40
0.0213
  0
LINE
  5
1DA
330
18
100
AcDbEntity
  8
0
100
AcDbLine
 10
7.579962499999998
 20
10.15625
 30
0.0
 11
8.194062499999999
 21
10.15625
 31
0.0
  0
LINE
  5
1DF
330
18
100
AcDbEntity
  8
0
100
AcDbLine
 10
7.579962499999998
 20
9.156249999999998
 30
0.0
 11
8.194062499999999
 21
9.15625
 31
0.0
  0
LINE
  5
1E4
330
18
100
AcDbEntity
  8
0
100
AcDbLine
 10
7.579962499999998
 20
8.656250000000001
 30
0.0
 11
8.194062499999999
 21
8.656250000000001
 31
0.0
  0
LINE
  5
251
330
18
100
AcDbEntity
  8
0
100
AcDbLine
 10
4.631562499999999
 20
9.656249999999998
 30
0.0
 11
7.1049625
 21
9.65625
 31
0.0
  0
LINE
  5
256
330
18
100
AcDbEntity
  8
0
100
AcDbLine
 10
7.5799625
 20
9.65625
 30
0.0
 11
8.194062499999999
 21
9.65625
 31
0.0
  0
LINE
  5
257
330
18
100
AcDbEntity
  8
0
100
AcDbLine
 10
8.194062500000002
 20
9.65525
 30
0.0
 11
8.194062500000002
 21
9.657249999999999
 31
0.0
  0
LINE
  5
258
330
18
100
AcDbEntity
  8
0
100
AcDbLine
 10
8.1950625
 20
9.65625
 30
0.0
 11
8.193062500000001
 21
9.65625
 31
0.0
  0
CIRCLE
  5
259
330
18
100
AcDbEntity
  8
0
100
AcDbCircle
 10
8.194062500000002
 20
9.65625
 30
0.0
 40
0.0113
  0
CIRCLE
  5
25A
330
18
100
AcDbEntity
  8
0
100
AcDbCircle
 10
8.194062500000002
 20
9.65625
 30
0.0
 40
0.0213
  0
TEXT
  5
2F0
330
18
100
AcDbEntity
  8
0
100
AcDbText
 10
19.525
 20
8.125
 30
0.0
 40
0.1
  1

 72
     1
 11
19.525
 21
8.125
 31
0.0
100
AcDbText
  0
TEXT
  5
2F1
330
18
100
AcDbEntity
  8
0
100
AcDbText
 10
25.67403808143782
 20
4.985374999999998
 30
0.0
 40
0.075
  1

100
AcDbText
  0
TEXT
  5
2F2
330
18
100
AcDbEntity
  8
0
100
AcDbText
 10
25.32633053740864
 20
4.985374999999998
 30
0.0
 40
0.075
  1

100
AcDbText
  0
TEXT
  5
2F3
330
18
100
AcDbEntity
  8
0
100
AcDbText
 10
25.23520532397234
 20
14.51631030265525
 30
0.0
 40
0.1
  1

 72
     1
 11
25.23520532397234
 21
14.51631030265525
 31
0.0
100
AcDbText
  0
TEXT
  5
2F4
330
18
100
AcDbEntity
  8
0
100
AcDbText
 10
31.38424340541015
 20
11.37668530265524
 30
0.0
 40
0.075
  1

100
AcDbText
  0
TEXT
  5
2F5
330
18
100
AcDbEntity
  8
0
100
AcDbText
 10
31.03653586138097
 20
11.37668530265524
 30
0.0
 40
0.075
  1

100
AcDbText
  0
TEXT
  5
2F6
330
18
100
AcDbEntity
  8
0
100
AcDbText
 10
31.1135
 20
8.158374999999999
 30
0.0
 40
0.1
  1

 72
     1
 11
31.1135
 21
8.158374999999999
 31
0.0
100
AcDbText
  0
TEXT
  5
2F7
330
18
100
AcDbEntity
  8
0
100
AcDbText
 10
37.26253808143782
 20
5.018749999999998
 30
0.0
 40
0.075
  1

100
AcDbText
  0
TEXT
  5
2F8
330
18
100
AcDbEntity
  8
0
100
AcDbText
 10
36.91483053740864
 20
5.018749999999998
 30
0.0
 40
0.075
  1

100
AcDbText
  0
TEXT
  5
2F9
330
18
100
AcDbEntity
  8
0
100
AcDbText
 10
36.82370532397233
 20
14.54968530265525
 30
0.0
 40
0.1
  1

 72
     1
 11
36.82370532397233
 21
14.54968530265525
 31
0.0
100
AcDbText
  0
TEXT
  5
2FA
330
18
100
AcDbEntity
  8
0
100
AcDbText
 10
42.97274340541014
 20
11.41006030265524
 30
0.0
 40
0.075
  1

100
AcDbText
  0
TEXT
  5
2FB
330
18
100
AcDbEntity
  8
0
100
AcDbText
 10
42.62503586138096
 20
11.41006030265524
 30
0.0
 40
0.075
  1

100
AcDbText
  0
TEXT
  5
2FC
330
18
100
AcDbEntity
  8
0
100
AcDbText
 10
23.50535810065158
 20
14.98561286894363
 30
0.0
 40
0.075
  1

 72
     1
 11
23.50535810065158
 21
14.98561286894363
 31
0.0
100
AcDbText
  0
TEXT
  5
2FD
330
18
100
AcDbEntity
  8
0
100
AcDbText
 10
23.50535810065158
 20
14.48561286894363
 30
0.0
 40
0.075
  1

 72
     1
 11
23.50535810065158
 21
14.48561286894363
 31
0.0
100
AcDbText
  0
TEXT
  5
2FE
330
18
100
AcDbEntity
  8
0
100
AcDbText
 10
23.50535810065158
 20
13.98561286894363
 30
0.0
 40
0.1
  1

 72
     1
 11
23.50535810065158
 21
13.98561286894363
 31
0.0
100
AcDbText
  0
TEXT
  5
2FF
330
18
100
AcDbEntity
  8
0
100
AcDbText
 10
23.31785810065159
 20
7.985612868943633
 30
0.0
 40
0.1
  1

100
AcDbText
  0
TEXT
  5
300
330
18
100
AcDbEntity
  8
0
100
AcDbText
 10
23.31785810065158
 20
13.48561286894363
 30
0.0
 40
0.1
  1

100
AcDbText
  0
TEXT
  5
301
330
18
100
AcDbEntity
  8
0
100
AcDbText
 10
33.83149085518776
 20
14.98561286894363
 30
0.0
 40
0.075
  1

 72
     1
 11
33.83149085518776
 21
14.98561286894363
 31
0.0
100
AcDbText
  0
TEXT
  5
302
330
18
100
AcDbEntity
  8
0
100
AcDbText
 10
33.83149085518776
 20
14.48561286894363
 30
0.0
 40
0.075
  1

 72
     1
 11
33.83149085518776
 21
14.48561286894363
 31
0.0
100
AcDbText
  0
TEXT
  5
303
330
18
100
AcDbEntity
  8
0
100
AcDbText
 10
33.83149085518776
 20
13.98561286894363
 30
0.0
 40
0.1
  1

 72
     1
 11
33.83149085518776
 21
13.98561286894363
 31
0.0
100
AcDbText
  0
TEXT
  5
304
330
18
100
AcDbEntity
  8
0
100
AcDbText
 10
33.64399085518776
 20
7.985612868943633
 30
0.0
 40
0.1
  1

100
AcDbText
  0
TEXT
  5
305
330
18
100
AcDbEntity
  8
0
100
AcDbText
 10
33.64399085518775
 20
13.48561286894363
 30
0.0
 40
0.1
  1

100
AcDbText
  0
TEXT
  5
32D
330
18
100
AcDbEntity
  8
TEXT
100
AcDbText
 10
1.911473214285713
 20
10.09375
 30
0.0
 40
0.125
  1
_._._
 41
0.8
 51
10.0
  7
ROMANS
100
AcDbText
  0
TEXT
  5
32E
330
18
100
AcDbEntity
  8
TEXT
100
AcDbText
 10
1.911473214285713
 20
9.593749999999998
 30
0.0
 40
0.125
  1
_._._
 41
0.8
 51
10.0
  7
ROMANS
100
AcDbText
  0
TEXT
  5
32F
330
18
100
AcDbEntity
  8
TEXT
100
AcDbText
 10
1.911473214285713
 20
9.093749999999998
 30
0.0
 40
0.125
  1
_._._
 41
0.8
 51
10.0
  7
ROMANS
100
AcDbText
  0
TEXT
  5
330
330
18
100
AcDbEntity
  8
TEXT
100
AcDbText
 10
1.911473214285713
 20
8.593749999999998
 30
0.0
 40
0.125
  1
_._._
 41
0.8
 51
10.0
  7
ROMANS
100
AcDbText
  0
TEXT
  5
34C
330
18
100
AcDbEntity
  8
TEXT
100
AcDbText
 10
4.260729166666665
 20
10.10624999999999
 30
0.0
 40
0.1
  1
____
 72
     1
 11
4.444062499999999
 21
10.10624999999999
 31
0.0
100
AcDbText
  0
LINE
  5
34D
330
18
100
AcDbEntity
  8
0
100
AcDbLine
 10
4.631562499999999
 20
10.06249999999999
 30
0.0
 11
4.256562499999999
 21
10.06249999999999
 31
0.0
  0
LINE
  5
34E
330
18
100
AcDbEntity
  8
0
100
AcDbLine
 10
4.631562499999999
 20
10.24999999999999
 30
0.0
 11
4.256562499999999
 21
10.24999999999999
 31
0.0
  0
LINE
  5
34F
330
18
100
AcDbEntity
  8
0
100
AcDbLine
 10
4.631562499999999
 20
10.24999999999999
 30
0.0
 11
4.631562499999999
 21
10.06249999999999
 31
0.0
  0
LINE
  5
350
330
18
100
AcDbEntity
  8
0
100
AcDbLine
 10
4.256562499999999
 20
10.24999999999999
 30
0.0
 11
4.256562499999999
 21
10.06249999999999
 31
0.0
  0
TEXT
  5
351
330
18
100
AcDbEntity
  8
TEXT
100
AcDbText
 10
4.260729166666665
 20
9.606249999999997
 30
0.0
 40
0.1
  1
____
 72
     1
 11
4.444062499999999
 21
9.606249999999997
 31
0.0
100
AcDbText
  0
LINE
  5
352
330
18
100
AcDbEntity
  8
0
100
AcDbLine
 10
4.631562499999999
 20
9.562499999999998
 30
0.0
 11
4.256562499999999
 21
9.562499999999998
 31
0.0
  0
LINE
  5
353
330
18
100
AcDbEntity
  8
0
100
AcDbLine
 10
4.631562499999999
 20
9.749999999999998
 30
0.0
 11
4.256562499999999
 21
9.749999999999998
 31
0.0
  0
LINE
  5
354
330
18
100
AcDbEntity
  8
0
100
AcDbLine
 10
4.631562499999999
 20
9.749999999999998
 30
0.0
 11
4.631562499999999
 21
9.562499999999998
 31
0.0
  0
LINE
  5
355
330
18
100
AcDbEntity
  8
0
100
AcDbLine
 10
4.256562499999999
 20
9.749999999999998
 30
0.0
 11
4.256562499999999
 21
9.562499999999998
 31
0.0
  0
TEXT
  5
356
330
18
100
AcDbEntity
  8
TEXT
100
AcDbText
 10
4.260729166666665
 20
9.106249999999997
 30
0.0
 40
0.1
  1
____
 72
     1
 11
4.444062499999999
 21
9.106249999999997
 31
0.0
100
AcDbText
  0
LINE
  5
357
330
18
100
AcDbEntity
  8
0
100
AcDbLine
 10
4.631562499999999
 20
9.062499999999998
 30
0.0
 11
4.256562499999999
 21
9.062499999999998
 31
0.0
  0
LINE
  5
358
330
18
100
AcDbEntity
  8
0
100
AcDbLine
 10
4.631562499999999
 20
9.249999999999998
 30
0.0
 11
4.256562499999999
 21
9.249999999999998
 31
0.0
  0
LINE
  5
359
330
18
100
AcDbEntity
  8
0
100
AcDbLine
 10
4.631562499999999
 20
9.249999999999998
 30
0.0
 11
4.631562499999999
 21
9.062499999999998
 31
0.0
  0
LINE
  5
35A
330
18
100
AcDbEntity
  8
0
100
AcDbLine
 10
4.256562499999999
 20
9.249999999999998
 30
0.0
 11
4.256562499999999
 21
9.062499999999998
 31
0.0
  0
TEXT
  5
35B
330
18
100
AcDbEntity
  8
TEXT
100
AcDbText
 10
4.260729166666665
 20
8.606249999999995
 30
0.0
 40
0.1
  1
____
 72
     1
 11
4.444062499999999
 21
8.606249999999995
 31
0.0
100
AcDbText
  0
LINE
  5
35C
330
18
100
AcDbEntity
  8
0
100
AcDbLine
 10
4.631562499999999
 20
8.562499999999996
 30
0.0
 11
4.256562499999999
 21
8.562499999999996
 31
0.0
  0
LINE
  5
35D
330
18
100
AcDbEntity
  8
0
100
AcDbLine
 10
4.631562499999999
 20
8.749999999999996
 30
0.0
 11
4.256562499999999
 21
8.749999999999996
 31
0.0
  0
LINE
  5
35E
330
18
100
AcDbEntity
  8
0
100
AcDbLine
 10
4.631562499999999
 20
8.749999999999996
 30
0.0
 11
4.631562499999999
 21
8.562499999999996
 31
0.0
  0
LINE
  5
35F
330
18
100
AcDbEntity
  8
0
100
AcDbLine
 10
4.256562499999999
 20
8.749999999999996
 30
0.0
 11
4.256562499999999
 21
8.562499999999996
 31
0.0
  0
TEXT
  5
374
330
18
100
AcDbEntity
  8
TEXT
100
AcDbText
 10
8.387068452380951
 20
10.09374999999999
 30
0.0
 40
0.125
  1
*
 41
0.8
 51
10.0
  7
ROMANS
100
AcDbText
  0
TEXT
  5
375
330
18
100
AcDbEntity
  8
TEXT
100
AcDbText
 10
8.387068452380951
 20
9.593749999999996
 30
0.0
 40
0.125
  1
*
 41
0.8
 51
10.0
  7
ROMANS
100
AcDbText
  0
TEXT
  5
376
330
18
100
AcDbEntity
  8
TEXT
100
AcDbText
 10
8.387068452380951
 20
9.093749999999996
 30
0.0
 40
0.125
  1
*
 41
0.8
 51
10.0
  7
ROMANS
100
AcDbText
  0
TEXT
  5
377
330
18
100
AcDbEntity
  8
TEXT
100
AcDbText
 10
8.387068452380951
 20
8.593749999999994
 30
0.0
 40
0.125
  1
*
 41
0.8
 51
10.0
  7
ROMANS
100
AcDbText
  0
LINE
  5
37C
330
18
100
AcDbEntity
  8
0
100
AcDbLine
 10
8.381562499999999
 20
10.75
 30
0.0
 11
8.006562499999999
 21
10.75
 31
0.0
  0
LINE
  5
37D
330
18
100
AcDbEntity
  8
0
100
AcDbLine
 10
8.381562499999999
 20
10.5625
 30
0.0
 11
8.006562499999999
 21
10.5625
 31
0.0
  0
LINE
  5
37E
330
18
100
AcDbEntity
  8
0
100
AcDbLine
 10
8.381562499999999
 20
10.75
 30
0.0
 11
8.381562499999999
 21
10.5625
 31
0.0
  0
LINE
  5
380
330
18
100
AcDbEntity
  8
0
100
AcDbLine
 10
8.006562499999999
 20
10.75
 30
0.0
 11
8.006562499999999
 21
10.5625
 31
0.0
  0
TEXT
  5
382
330
18
100
AcDbEntity
  8
TEXT
100
AcDbText
 10
8.010729166666665
 20
10.60624999999999
 30
0.0
 40
0.1
  1
____
 72
     1
 11
8.194062499999999
 21
10.60624999999999
 31
0.0
100
AcDbText
  0
TEXT
  5
3CF
330
18
100
AcDbEntity
  8
TEXT
100
AcDbText
 10
2.692872023809522
 20
10.09375
 30
0.0
 40
0.125
  1
OUT1
 41
0.8
 51
10.0
  7
ROMANS
100
AcDbText
  0
LINE
  5
488
330
18
100
AcDbEntity
  8
DASH
100
AcDbLine
 10
7.342462499999998
 20
10.15625
 30
0.0
 11
7.342462499999998
 21
6.65625
 31
0.0
  0
LINE
  5
4A3
330
18
100
AcDbEntity
  8
DASH
100
AcDbLine
 10
1.709687499999999
 20
11.40625
 30
0.0
 11
3.256562499999999
 21
11.40625
 31
0.0
  0
TEXT
  5
4AC
330
18
100
AcDbEntity
  8
TEXT
100
AcDbText
 10
4.891800595238094
 20
10.37291666666666
 30
0.0
 40
0.1
  1
+24 VDC Sourcing Outputs:
 41
0.8
  7
ROMANS
 72
     4
 11
5.756562499999999
 21
10.40625
 31
0.0
100
AcDbText
  0
INSERT
  5
4FF
330
18
100
AcDbEntity
  8
0
100
AcDbBlockReference
  2
PCON_5
 10
3.256562500000001
 20
11.80424999999999
 30
0.0
 41
-1.0
  0
INSERT
  5
504
330
18
100
AcDbEntity
  8
0
100
AcDbBlockReference
  2
PCON_5
 10
3.256562500000001
 20
13.04624999999999
 30
0.0
 41
-1.0
  0
LINE
  5
50A
330
18
100
AcDbEntity
  8
DASH
100
AcDbLine
 10
1.709687499999999
 20
12.90624999999999
 30
0.0
 11
3.256562499999999
 21
12.90624999999999
 31
0.0
  0
LINE
  5
50B
330
18
100
AcDbEntity
  8
DASH
100
AcDbLine
 10
1.709687499999999
 20
14.40625
 30
0.0
 11
3.256562499999999
 21
14.40625
 31
0.0
  0
LINE
  5
50D
330
18
100
AcDbEntity
  8
0
100
AcDbLine
 10
3.517062500000001
 20
13.94324999999999
 30
0.0
 11
4.131312500000008
 21
13.94324999999999
 31
0.0
  0
LINE
  5
50E
330
18
100
AcDbEntity
  8
0
100
AcDbLine
 10
3.517062500000001
 20
13.74624999999999
 30
0.0
 11
4.131312500000008
 21
13.74624999999999
 31
0.0
  0
LINE
  5
50F
330
18
100
AcDbEntity
  8
0
100
AcDbLine
 10
3.517062500000001
 20
13.54224999999999
 30
0.0
 11
4.279062500000003
 21
13.54224999999999
 31
0.0
  0
TEXT
  5
519
330
18
100
AcDbEntity
  8
TEXT
100
AcDbText
 10
5.699122023809526
 20
12.19274999999999
 30
0.0
 40
0.125
  1
OUT (To Next Block)
 41
0.8
 51
10.0
  7
ROMANS
100
AcDbText
  0
TEXT
  5
51A
330
18
100
AcDbEntity
  8
TEXT
100
AcDbText
 10
6.151502976190479
 20
13.43474999999999
 30
0.0
 40
0.125
  1
IN (From CPU)
 41
0.8
 51
10.0
  7
ROMANS
100
AcDbText
  0
TEXT
  5
51B
330
18
100
AcDbEntity
  8
TEXT
100
AcDbText
 10
2.078586309523804
 20
13.88074999999999
 30
0.0
 40
0.125
  1
5: Driver (-)
 41
0.8
 51
10.0
  7
ROMANS
100
AcDbText
  0
TEXT
  5
51C
330
18
100
AcDbEntity
  8
TEXT
100
AcDbText
 10
2.078586309523804
 20
13.68374999999999
 30
0.0
 40
0.125
  1
4: Driver (+)
 41
0.8
 51
10.0
  7
ROMANS
100
AcDbText
  0
TEXT
  5
51D
330
18
100
AcDbEntity
  8
TEXT
100
AcDbText
 10
2.421443452380947
 20
13.47974999999999
 30
0.0
 40
0.125
  1
3: Shield
 41
0.8
 51
10.0
  7
ROMANS
100
AcDbText
  0
TEXT
  5
51E
330
18
100
AcDbEntity
  8
TEXT
100
AcDbText
 10
1.897633928571425
 20
13.08574999999999
 30
0.0
 40
0.125
  1
1: Receiver (+)
 41
0.8
 51
10.0
  7
ROMANS
100
AcDbText
  0
TEXT
  5
51F
330
18
100
AcDbEntity
  8
TEXT
100
AcDbText
 10
1.883348214285711
 20
13.28274999999999
 30
0.0
 40
0.125
  1
2: Receiver (-)
 41
0.8
 51
10.0
  7
ROMANS
100
AcDbText
  0
TEXT
  5
520
330
18
100
AcDbEntity
  8
TEXT
100
AcDbText
 10
1.883348214285709
 20
12.63874999999999
 30
0.0
 40
0.125
  1
5: Receiver (-)
 41
0.8
 51
10.0
  7
ROMANS
100
AcDbText
  0
TEXT
  5
521
330
18
100
AcDbEntity
  8
TEXT
100
AcDbText
 10
1.883348214285709
 20
12.44174999999999
 30
0.0
 40
0.125
  1
4: Receiver (+)
 41
0.8
 51
10.0
  7
ROMANS
100
AcDbText
  0
TEXT
  5
522
330
18
100
AcDbEntity
  8
TEXT
100
AcDbText
 10
2.421443452380947
 20
12.23774999999999
 30
0.0
 40
0.125
  1
3: Shield
 41
0.8
 51
10.0
  7
ROMANS
100
AcDbText
  0
TEXT
  5
523
330
18
100
AcDbEntity
  8
TEXT
100
AcDbText
 10
2.078586309523806
 20
12.04074999999999
 30
0.0
 40
0.125
  1
2: Driver (-)
 41
0.8
 51
10.0
  7
ROMANS
100
AcDbText
  0
TEXT
  5
524
330
18
100
AcDbEntity
  8
TEXT
100
AcDbText
 10
2.09287202380952
 20
11.84374999999999
 30
0.0
 40
0.125
  1
1: Driver (+)
 41
0.8
 51
10.0
  7
ROMANS
100
AcDbText
  0
ELLIPSE
  5
55A
330
18
100
AcDbEntity
  8
0
100
AcDbEllipse
 10
5.3133125
 20
13.84475
 30
0.0
 11
-0.1477499999999994
 21
0.0
 31
0.0
210
0.0
220
0.0
230
-1.0
 40
0.4999999999999911
 41
0.0
 42
6.283185307179586
  0
ELLIPSE
  5
55B
330
18
100
AcDbEntity
  8
0
100
AcDbEllipse
 10
5.6088125
 20
13.84475
 30
0.0
 11
-0.1477499999999994
 21
0.0
 31
0.0
210
0.0
220
0.0
230
-1.0
 40
0.4999999999999911
 41
-1.570796326794896
 42
1.570796326794896
  0
ELLIPSE
  5
562
330
18
100
AcDbEntity
  8
0
100
AcDbEllipse
 10
4.722312500000006
 20
13.84475
 30
0.0
 11
-0.1477499999999994
 21
0.0
 31
0.0
210
0.0
220
0.0
230
-1.0
 40
0.4999999999999911
 41
0.0
 42
6.283185307179586
  0
ELLIPSE
  5
563
330
18
100
AcDbEntity
  8
0
100
AcDbEllipse
 10
5.017812500000003
 20
13.84475
 30
0.0
 11
-0.1477499999999994
 21
0.0
 31
0.0
210
0.0
220
0.0
230
-1.0
 40
0.4999999999999911
 41
0.0
 42
6.283185307179586
  0
LINE
  5
564
330
18
100
AcDbEntity
  8
0
100
AcDbLine
 10
5.6088125
 20
13.91862499999999
 30
0.0
 11
5.6088125
 21
13.94324999999999
 31
0.0
  0
LINE
  5
565
330
18
100
AcDbEntity
  8
0
100
AcDbLine
 10
5.6088125
 20
13.770875
 30
0.0
 11
5.6088125
 21
13.74625
 31
0.0
  0
ELLIPSE
  5
566
330
18
100
AcDbEntity
  8
0
100
AcDbEllipse
 10
4.131312500000008
 20
13.84475
 30
0.0
 11
-0.1477499999999994
 21
0.0
 31
0.0
210
0.0
220
0.0
230
-1.0
 40
0.4999999999999911
 41
1.570796326794896
 42
4.712388980384836
  0
ELLIPSE
  5
567
330
18
100
AcDbEntity
  8
0
100
AcDbEllipse
 10
4.426812500000005
 20
13.84475
 30
0.0
 11
-0.1477499999999994
 21
0.0
 31
0.0
210
0.0
220
0.0
230
-1.0
 40
0.4999999999999911
 41
0.0
 42
6.283185307179586
  0
LINE
  5
568
330
18
100
AcDbEntity
  8
0
100
AcDbLine
 10
4.131312500000008
 20
13.74624999999999
 30
0.0
 11
4.131312500000008
 21
13.770875
 31
0.0
  0
LINE
  5
569
330
18
100
AcDbEntity
  8
0
100
AcDbLine
 10
4.131312500000008
 20
13.918625
 30
0.0
 11
4.131312500000008
 21
13.94324999999999
 31
0.0
  0
LINE
  5
56A
330
18
100
AcDbEntity
  8
0
100
AcDbLine
 10
5.6088125
 20
13.94324999999999
 30
0.0
 11
5.756562499999999
 21
13.94324999999999
 31
0.0
  0
LINE
  5
56B
330
18
100
AcDbEntity
  8
0
100
AcDbLine
 10
5.6088125
 20
13.74625
 30
0.0
 11
5.756562499999999
 21
13.74625
 31
0.0
  0
LINE
  5
56C
330
18
100
AcDbEntity
  8
DASH
100
AcDbLine
 10
5.4610625
 20
13.94324999999999
 30
0.0
 11
4.279062500000003
 21
13.94324999999999
 31
0.0
  0
LINE
  5
572
330
18
100
AcDbEntity
  8
DASH
100
AcDbLine
 10
4.279062500000003
 20
13.94325
 30
0.0
 11
4.279062500000007
 21
13.14124999999999
 31
0.0
  0
INSERT
  5
57A
330
18
100
AcDbEntity
  8
0
100
AcDbBlockReference
  2
DOT
 10
4.279062500000003
 20
13.54224999999999
 30
0.0
 41
-1.0
  0
LINE
  5
57D
330
18
100
AcDbEntity
  8
DASH
100
AcDbLine
 10
5.4610625
 20
13.14124999999999
 30
0.0
 11
4.279062500000003
 21
13.14124999999999
 31
0.0
  0
ELLIPSE
  5
57E
330
18
100
AcDbEntity
  8
0
100
AcDbEllipse
 10
4.722312500000006
 20
13.23974999999999
 30
0.0
 11
-0.1477499999999994
 21
0.0
 31
0.0
210
0.0
220
0.0
230
1.0
 40
0.4999999999999911
 41
0.0
 42
6.283185307179586
  0
ELLIPSE
  5
57F
330
18
100
AcDbEntity
  8
0
100
AcDbEllipse
 10
5.6088125
 20
13.23974999999999
 30
0.0
 11
-0.1477499999999994
 21
0.0
 31
0.0
210
0.0
220
0.0
230
1.0
 40
0.4999999999999911
 41
-1.570796326794896
 42
1.570796326794896
  0
LINE
  5
580
330
18
100
AcDbEntity
  8
0
100
AcDbLine
 10
5.6088125
 20
13.33824999999999
 30
0.0
 11
5.756562499999999
 21
13.33824999999999
 31
0.0
  0
LINE
  5
581
330
18
100
AcDbEntity
  8
0
100
AcDbLine
 10
5.6088125
 20
13.14124999999999
 30
0.0
 11
5.756562499999999
 21
13.14124999999999
 31
0.0
  0
LINE
  5
582
330
18
100
AcDbEntity
  8
0
100
AcDbLine
 10
5.6088125
 20
13.31362499999999
 30
0.0
 11
5.6088125
 21
13.33824999999999
 31
0.0
  0
LINE
  5
583
330
18
100
AcDbEntity
  8
0
100
AcDbLine
 10
5.6088125
 20
13.16587499999999
 30
0.0
 11
5.6088125
 21
13.14124999999999
 31
0.0
  0
ELLIPSE
  5
584
330
18
100
AcDbEntity
  8
0
100
AcDbEllipse
 10
5.017812500000003
 20
13.23974999999999
 30
0.0
 11
-0.1477499999999994
 21
0.0
 31
0.0
210
0.0
220
0.0
230
1.0
 40
0.4999999999999911
 41
0.0
 42
6.283185307179586
  0
ELLIPSE
  5
585
330
18
100
AcDbEntity
  8
0
100
AcDbEllipse
 10
5.3133125
 20
13.23974999999999
 30
0.0
 11
-0.1477499999999994
 21
0.0
 31
0.0
210
0.0
220
0.0
230
1.0
 40
0.4999999999999911
 41
0.0
 42
6.283185307179586
  0
ELLIPSE
  5
587
330
18
100
AcDbEntity
  8
0
100
AcDbEllipse
 10
4.426812500000005
 20
13.23974999999999
 30
0.0
 11
-0.1477499999999994
 21
0.0
 31
0.0
210
0.0
220
0.0
230
1.0
 40
0.4999999999999911
 41
0.0
 42
6.283185307179586
  0
ELLIPSE
  5
588
330
18
100
AcDbEntity
  8
0
100
AcDbEllipse
 10
4.131312500000008
 20
13.23974999999999
 30
0.0
 11
-0.1477499999999994
 21
0.0
 31
0.0
210
0.0
220
0.0
230
1.0
 40
0.4999999999999911
 41
1.570796326794896
 42
4.712388980384847
  0
LINE
  5
589
330
18
100
AcDbEntity
  8
0
100
AcDbLine
 10
4.131312500000008
 20
13.33824999999999
 30
0.0
 11
4.131312500000008
 21
13.31362499999998
 31
0.0
  0
LINE
  5
58A
330
18
100
AcDbEntity
  8
0
100
AcDbLine
 10
4.131312500000008
 20
13.16587499999999
 30
0.0
 11
4.131312500000008
 21
13.14124999999999
 31
0.0
  0
LINE
  5
58B
330
18
100
AcDbEntity
  8
0
100
AcDbLine
 10
3.517062500000001
 20
13.33824999999999
 30
0.0
 11
4.131312500000008
 21
13.33824999999999
 31
0.0
  0
LINE
  5
58C
330
18
100
AcDbEntity
  8
0
100
AcDbLine
 10
3.517062500000001
 20
13.14124999999999
 30
0.0
 11
4.131312500000008
 21
13.14124999999999
 31
0.0
  0
LINE
  5
5AF
330
18
100
AcDbEntity
  8
0
100
AcDbLine
 10
3.517062500000001
 20
11.89924999999999
 30
0.0
 11
4.131312500000008
 21
11.89924999999999
 31
0.0
  0
LINE
  5
5B0
330
18
100
AcDbEntity
  8
0
100
AcDbLine
 10
3.517062500000001
 20
12.09624999999999
 30
0.0
 11
4.131312500000008
 21
12.09624999999999
 31
0.0
  0
LINE
  5
5B1
330
18
100
AcDbEntity
  8
0
100
AcDbLine
 10
3.517062500000001
 20
12.50425
 30
0.0
 11
4.131312500000008
 21
12.50425
 31
0.0
  0
LINE
  5
5B2
330
18
100
AcDbEntity
  8
0
100
AcDbLine
 10
3.517062500000001
 20
12.70125
 30
0.0
 11
4.131312500000008
 21
12.70125
 31
0.0
  0
LINE
  5
5BB
330
18
100
AcDbEntity
  8
0
100
AcDbLine
 10
3.517062500000001
 20
12.30024999999999
 30
0.0
 11
4.279062500000003
 21
12.30024999999999
 31
0.0
  0
TEXT
  5
5D5
330
18
100
AcDbEntity
  8
TEXT
100
AcDbText
 10
4.557681547619051
 20
13.99325
 30
0.0
 40
0.1
  1
Cable #__
 41
0.8
  7
ROMANS
 72
     1
 11
4.892919642857146
 21
14.04325
 31
0.0
100
AcDbText
 73
     2
  0
TEXT
  5
5D7
330
18
100
AcDbEntity
  8
TEXT
100
AcDbText
 10
4.557681547619051
 20
12.75125
 30
0.0
 40
0.1
  1
Cable #__
 41
0.8
  7
ROMANS
 72
     1
 11
4.892919642857146
 21
12.80125
 31
0.0
100
AcDbText
 73
     2
  0
LINE
  5
5D9
330
18
100
AcDbEntity
  8
DASH
100
AcDbLine
 10
5.4610625
 20
13.94324999999999
 30
0.0
 11
5.461062500000002
 21
13.14124999999999
 31
0.0
  0
ELLIPSE
  5
5DA
330
18
100
AcDbEntity
  8
0
100
AcDbEllipse
 10
4.722312500000006
 20
11.99774999999999
 30
0.0
 11
-0.1477499999999994
 21
0.0
 31
0.0
210
0.0
220
0.0
230
1.0
 40
0.4999999999999911
 41
0.0
 42
6.283185307179586
  0
LINE
  5
5DB
330
18
100
AcDbEntity
  8
DASH
100
AcDbLine
 10
5.4610625
 20
11.89924999999999
 30
0.0
 11
4.279062500000003
 21
11.89924999999999
 31
0.0
  0
LINE
  5
5DC
330
18
100
AcDbEntity
  8
DASH
100
AcDbLine
 10
5.4610625
 20
12.70124999999999
 30
0.0
 11
4.279062500000003
 21
12.70125
 31
0.0
  0
ELLIPSE
  5
5DD
330
18
100
AcDbEntity
  8
0
100
AcDbEllipse
 10
4.722312500000006
 20
12.60275
 30
0.0
 11
-0.1477499999999994
 21
0.0
 31
0.0
210
0.0
220
0.0
230
-1.0
 40
0.4999999999999911
 41
0.0
 42
6.283185307179586
  0
ELLIPSE
  5
5DE
330
18
100
AcDbEntity
  8
0
100
AcDbEllipse
 10
5.6088125
 20
11.99774999999999
 30
0.0
 11
-0.1477499999999994
 21
0.0
 31
0.0
210
0.0
220
0.0
230
1.0
 40
0.4999999999999911
 41
-1.570796326794896
 42
1.570796326794896
  0
ELLIPSE
  5
5DF
330
18
100
AcDbEntity
  8
0
100
AcDbEllipse
 10
5.6088125
 20
12.60275
 30
0.0
 11
-0.1477499999999994
 21
0.0
 31
0.0
210
0.0
220
0.0
230
-1.0
 40
0.4999999999999911
 41
-1.570796326794896
 42
1.570796326794896
  0
LINE
  5
5E0
330
18
100
AcDbEntity
  8
0
100
AcDbLine
 10
5.6088125
 20
11.89924999999999
 30
0.0
 11
5.756562499999999
 21
11.89924999999999
 31
0.0
  0
LINE
  5
5E1
330
18
100
AcDbEntity
  8
0
100
AcDbLine
 10
5.6088125
 20
12.09624999999999
 30
0.0
 11
5.756562499999999
 21
12.09624999999999
 31
0.0
  0
LINE
  5
5E2
330
18
100
AcDbEntity
  8
0
100
AcDbLine
 10
5.6088125
 20
11.92387499999999
 30
0.0
 11
5.6088125
 21
11.89924999999999
 31
0.0
  0
LINE
  5
5E3
330
18
100
AcDbEntity
  8
0
100
AcDbLine
 10
5.6088125
 20
12.07162499999999
 30
0.0
 11
5.6088125
 21
12.09624999999999
 31
0.0
  0
LINE
  5
5E4
330
18
100
AcDbEntity
  8
0
100
AcDbLine
 10
5.6088125
 20
12.50425
 30
0.0
 11
5.756562499999999
 21
12.50425
 31
0.0
  0
LINE
  5
5E5
330
18
100
AcDbEntity
  8
0
100
AcDbLine
 10
5.6088125
 20
12.70124999999999
 30
0.0
 11
5.756562499999999
 21
12.70124999999999
 31
0.0
  0
LINE
  5
5E6
330
18
100
AcDbEntity
  8
0
100
AcDbLine
 10
5.6088125
 20
12.528875
 30
0.0
 11
5.6088125
 21
12.50425
 31
0.0
  0
LINE
  5
5E7
330
18
100
AcDbEntity
  8
0
100
AcDbLine
 10
5.6088125
 20
12.676625
 30
0.0
 11
5.6088125
 21
12.70124999999999
 31
0.0
  0
ELLIPSE
  5
5E8
330
18
100
AcDbEntity
  8
0
100
AcDbEllipse
 10
5.017812500000003
 20
11.99774999999999
 30
0.0
 11
-0.1477499999999994
 21
0.0
 31
0.0
210
0.0
220
0.0
230
1.0
 40
0.4999999999999911
 41
0.0
 42
6.283185307179586
  0
ELLIPSE
  5
5E9
330
18
100
AcDbEntity
  8
0
100
AcDbEllipse
 10
5.017812500000003
 20
12.60275
 30
0.0
 11
-0.1477499999999994
 21
0.0
 31
0.0
210
0.0
220
0.0
230
-1.0
 40
0.4999999999999911
 41
0.0
 42
6.283185307179586
  0
LINE
  5
5EA
330
18
100
AcDbEntity
  8
DASH
100
AcDbLine
 10
5.4610625
 20
12.70124999999999
 30
0.0
 11
5.461062500000002
 21
11.89924999999999
 31
0.0
  0
ELLIPSE
  5
5EB
330
18
100
AcDbEntity
  8
0
100
AcDbEllipse
 10
5.3133125
 20
11.99774999999999
 30
0.0
 11
-0.1477499999999994
 21
0.0
 31
0.0
210
0.0
220
0.0
230
1.0
 40
0.4999999999999911
 41
0.0
 42
6.283185307179586
  0
ELLIPSE
  5
5EC
330
18
100
AcDbEntity
  8
0
100
AcDbEllipse
 10
5.3133125
 20
12.60275
 30
0.0
 11
-0.1477499999999994
 21
0.0
 31
0.0
210
0.0
220
0.0
230
-1.0
 40
0.4999999999999911
 41
0.0
 42
6.283185307179586
  0
ELLIPSE
  5
5ED
330
18
100
AcDbEntity
  8
0
100
AcDbEllipse
 10
4.426812500000005
 20
11.99774999999999
 30
0.0
 11
-0.1477499999999994
 21
0.0
 31
0.0
210
0.0
220
0.0
230
1.0
 40
0.4999999999999911
 41
0.0
 42
6.283185307179586
  0
ELLIPSE
  5
5EE
330
18
100
AcDbEntity
  8
0
100
AcDbEllipse
 10
4.426812500000005
 20
12.60275
 30
0.0
 11
-0.1477499999999994
 21
0.0
 31
0.0
210
0.0
220
0.0
230
-1.0
 40
0.4999999999999911
 41
0.0
 42
6.283185307179586
  0
INSERT
  5
5EF
330
18
100
AcDbEntity
  8
0
100
AcDbBlockReference
  2
DOT
 10
4.279062500000003
 20
12.30024999999999
 30
0.0
 41
-1.0
  0
LINE
  5
5F0
330
18
100
AcDbEntity
  8
DASH
100
AcDbLine
 10
4.279062500000003
 20
12.70125
 30
0.0
 11
4.279062500000007
 21
11.89924999999999
 31
0.0
  0
ELLIPSE
  5
5F1
330
18
100
AcDbEntity
  8
0
100
AcDbEllipse
 10
4.131312500000008
 20
11.99774999999999
 30
0.0
 11
-0.1477499999999994
 21
0.0
 31
0.0
210
0.0
220
0.0
230
1.0
 40
0.4999999999999911
 41
1.570796326794896
 42
4.712388980384872
  0
LINE
  5
5F2
330
18
100
AcDbEntity
  8
0
100
AcDbLine
 10
4.131312500000008
 20
11.92387499999999
 30
0.0
 11
4.131312500000008
 21
11.89924999999999
 31
0.0
  0
LINE
  5
5F3
330
18
100
AcDbEntity
  8
0
100
AcDbLine
 10
4.131312500000008
 20
12.09624999999999
 30
0.0
 11
4.131312500000008
 21
12.07162499999999
 31
0.0
  0
ELLIPSE
  5
5F4
330
18
100
AcDbEntity
  8
0
100
AcDbEllipse
 10
4.131312500000008
 20
12.60275
 30
0.0
 11
-0.1477499999999994
 21
0.0
 31
0.0
210
0.0
220
0.0
230
-1.0
 40
0.4999999999999911
 41
1.570796326794896
 42
4.712388980384847
  0
LINE
  5
5F5
330
18
100
AcDbEntity
  8
0
100
AcDbLine
 10
4.131312500000008
 20
12.50425
 30
0.0
 11
4.131312500000008
 21
12.52887500000001
 31
0.0
  0
LINE
  5
5F6
330
18
100
AcDbEntity
  8
0
100
AcDbLine
 10
4.131312500000008
 20
12.676625
 30
0.0
 11
4.131312500000008
 21
12.70125
 31
0.0
  0
TEXT
  5
672
330
18
100
AcDbEntity
  8
TEXT
100
AcDbText
 10
1.827886904761903
 20
14.64583333333333
 30
0.0
 40
0.1
  1
INTERNAL ADDRESSES
 41
0.8
  7
ROMANS
 72
     1
 11
2.483124999999999
 21
14.6125
 31
0.0
100
AcDbText
 73
     1
  0
TEXT
  5
673
330
18
100
AcDbEntity
  8
TEXT
100
AcDbText
 10
2.050744047619046
 20
14.49583333333333
 30
0.0
 40
0.1
  1
LISTED BELOW
 41
0.8
  7
ROMANS
 72
     1
 11
2.483124999999999
 21
14.4625
 31
0.0
100
AcDbText
 73
     1
  0
LINE
  5
682
330
18
100
AcDbEntity
  8
0
100
AcDbLine
 10
3.506562499999999
 20
10.78125
 30
0.0
 11
3.506562499999999
 21
10.53125
 31
0.0
  0
LINE
  5
683
330
18
100
AcDbEntity
  8
0
100
AcDbLine
 10
3.256562499999999
 20
10.53125
 30
0.0
 11
3.506562499999999
 21
10.53125
 31
0.0
  0
TEXT
  5
684
330
18
100
AcDbEntity
  8
TEXT
100
AcDbText
 10
3.279181547619046
 20
10.59375
 30
0.0
 40
0.125
  1
13
 41
0.8
  7
ROMANS
 72
     4
 11
3.381562499999999
 21
10.65625
 31
0.0
100
AcDbText
  0
LINE
  5
685
330
18
100
AcDbEntity
  8
0
100
AcDbLine
 10
3.256562499999999
 20
10.78125
 30
0.0
 11
3.506562499999999
 21
10.78125
 31
0.0
  0
LINE
  5
686
330
18
100
AcDbEntity
  8
0
100
AcDbLine
 10
3.506562499999999
 20
10.28125
 30
0.0
 11
3.506562499999999
 21
10.03125
 31
0.0
  0
LINE
  5
687
330
18
100
AcDbEntity
  8
0
100
AcDbLine
 10
3.256562499999999
 20
10.03125
 30
0.0
 11
3.506562499999999
 21
10.03125
 31
0.0
  0
TEXT
  5
688
330
18
100
AcDbEntity
  8
TEXT
100
AcDbText
 10
3.333943452380951
 20
10.09375
 30
0.0
 40
0.125
  1
2
 41
0.8
  7
ROMANS
 72
     4
 11
3.381562499999999
 21
10.15625
 31
0.0
100
AcDbText
  0
LINE
  5
689
330
18
100
AcDbEntity
  8
0
100
AcDbLine
 10
3.256562499999999
 20
10.28125
 30
0.0
 11
3.506562499999999
 21
10.28125
 31
0.0
  0
LINE
  5
68A
330
18
100
AcDbEntity
  8
0
100
AcDbLine
 10
3.506562499999999
 20
9.78125
 30
0.0
 11
3.506562499999999
 21
9.53125
 31
0.0
  0
LINE
  5
68B
330
18
100
AcDbEntity
  8
0
100
AcDbLine
 10
3.256562499999999
 20
9.53125
 30
0.0
 11
3.506562499999999
 21
9.53125
 31
0.0
  0
TEXT
  5
68C
330
18
100
AcDbEntity
  8
TEXT
100
AcDbText
 10
3.276800595238094
 20
9.59375
 30
0.0
 40
0.125
  1
14
 41
0.8
  7
ROMANS
 72
     4
 11
3.381562499999999
 21
9.65625
 31
0.0
100
AcDbText
  0
LINE
  5
68D
330
18
100
AcDbEntity
  8
0
100
AcDbLine
 10
3.256562499999999
 20
9.78125
 30
0.0
 11
3.506562499999999
 21
9.78125
 31
0.0
  0
LINE
  5
68E
330
18
100
AcDbEntity
  8
0
100
AcDbLine
 10
3.506562499999999
 20
9.28125
 30
0.0
 11
3.506562499999999
 21
9.03125
 31
0.0
  0
LINE
  5
68F
330
18
100
AcDbEntity
  8
0
100
AcDbLine
 10
3.256562499999999
 20
9.03125
 30
0.0
 11
3.506562499999999
 21
9.03125
 31
0.0
  0
TEXT
  5
690
330
18
100
AcDbEntity
  8
TEXT
100
AcDbText
 10
3.333943452380951
 20
9.09375
 30
0.0
 40
0.125
  1
3
 41
0.8
  7
ROMANS
 72
     4
 11
3.381562499999999
 21
9.15625
 31
0.0
100
AcDbText
  0
LINE
  5
691
330
18
100
AcDbEntity
  8
0
100
AcDbLine
 10
3.256562499999999
 20
9.28125
 30
0.0
 11
3.506562499999999
 21
9.28125
 31
0.0
  0
LINE
  5
692
330
18
100
AcDbEntity
  8
0
100
AcDbLine
 10
3.506562499999999
 20
8.78125
 30
0.0
 11
3.506562499999999
 21
8.53125
 31
0.0
  0
LINE
  5
693
330
18
100
AcDbEntity
  8
0
100
AcDbLine
 10
3.256562499999999
 20
8.53125
 30
0.0
 11
3.506562499999999
 21
8.53125
 31
0.0
  0
TEXT
  5
694
330
18
100
AcDbEntity
  8
TEXT
100
AcDbText
 10
3.279181547619046
 20
8.59375
 30
0.0
 40
0.125
  1
15
 41
0.8
  7
ROMANS
 72
     4
 11
3.381562499999999
 21
8.65625
 31
0.0
100
AcDbText
  0
LINE
  5
695
330
18
100
AcDbEntity
  8
0
100
AcDbLine
 10
3.256562499999999
 20
8.78125
 30
0.0
 11
3.506562499999999
 21
8.78125
 31
0.0
  0
LINE
  5
6A6
330
18
100
AcDbEntity
  8
0
100
AcDbLine
 10
3.506562499999999
 20
11.28125
 30
0.0
 11
3.506562499999999
 21
11.03125
 31
0.0
  0
LINE
  5
6A7
330
18
100
AcDbEntity
  8
0
100
AcDbLine
 10
3.256562499999999
 20
11.03125
 30
0.0
 11
3.506562499999999
 21
11.03125
 31
0.0
  0
TEXT
  5
6A8
330
18
100
AcDbEntity
  8
TEXT
100
AcDbText
 10
3.341086309523809
 20
11.09375
 30
0.0
 40
0.125
  1
1
 41
0.8
  7
ROMANS
 72
     4
 11
3.381562499999999
 21
11.15625
 31
0.0
100
AcDbText
  0
LINE
  5
6A9
330
18
100
AcDbEntity
  8
0
100
AcDbLine
 10
3.256562499999999
 20
11.28125
 30
0.0
 11
3.506562499999999
 21
11.28125
 31
0.0
  0
TEXT
  5
6C2
330
18
100
AcDbEntity
  8
TEXT
100
AcDbText
 10
2.664300595238094
 20
10.59375
 30
0.0
 40
0.125
  1
COM1
 41
0.8
 51
10.0
  7
ROMANS
100
AcDbText
  0
TEXT
  5
6C3
330
18
100
AcDbEntity
  8
TEXT
100
AcDbText
 10
2.692872023809522
 20
11.09375
 30
0.0
 40
0.125
  1
LINE1
 41
0.8
 51
10.0
  7
ROMANS
100
AcDbText
  0
TEXT
  5
6C4
330
18
100
AcDbEntity
  8
TEXT
100
AcDbText
 10
4.260729166666665
 20
11.10624999999999
 30
0.0
 40
0.1
  1
____
 72
     1
 11
4.444062499999999
 21
11.10624999999999
 31
0.0
100
AcDbText
  0
LINE
  5
6C5
330
18
100
AcDbEntity
  8
0
100
AcDbLine
 10
4.631562499999999
 20
11.0625
 30
0.0
 11
4.256562499999999
 21
11.0625
 31
0.0
  0
LINE
  5
6C6
330
18
100
AcDbEntity
  8
0
100
AcDbLine
 10
4.631562499999999
 20
11.25
 30
0.0
 11
4.256562499999999
 21
11.25
 31
0.0
  0
LINE
  5
6C7
330
18
100
AcDbEntity
  8
0
100
AcDbLine
 10
4.256562499999999
 20
11.25
 30
0.0
 11
4.256562499999999
 21
11.0625
 31
0.0
  0
LINE
  5
6C8
330
18
100
AcDbEntity
  8
0
100
AcDbLine
 10
4.631562499999999
 20
11.25
 30
0.0
 11
4.631562499999999
 21
11.0625
 31
0.0
  0
LINE
  5
6C9
330
18
100
AcDbEntity
  8
0
100
AcDbLine
 10
3.506562499999999
 20
11.15625
 30
0.0
 11
4.256562499999999
 21
11.15625
 31
0.0
  0
TEXT
  5
6CA
330
18
100
AcDbEntity
  8
TEXT
100
AcDbText
 10
5.230848214285713
 20
11.10624999999999
 30
0.0
 40
0.1
  1
+24 VDC Source
 41
0.8
  7
ROMANS
 72
     4
 11
5.756562499999999
 21
11.15625
 31
0.0
100
AcDbText
  0
LINE
  5
6CD
330
18
100
AcDbEntity
  8
0
100
AcDbLine
 10
4.631562499999999
 20
8.156249999999996
 30
0.0
 11
7.104962499999999
 21
8.156249999999996
 31
0.0
  0
LINE
  5
6CE
330
18
100
AcDbEntity
  8
0
100
AcDbLine
 10
4.631562499999999
 20
7.156249999999996
 30
0.0
 11
7.104962499999999
 21
7.156249999999996
 31
0.0
  0
LINE
  5
6CF
330
18
100
AcDbEntity
  8
0
100
AcDbLine
 10
4.631562499999999
 20
6.656249999999996
 30
0.0
 11
7.104962499999999
 21
6.656249999999996
 31
0.0
  0
LINE
  5
6D0
330
18
100
AcDbEntity
  8
0
100
AcDbLine
 10
4.631562499999999
 20
7.656249999999996
 30
0.0
 11
7.1049625
 21
7.656249999999998
 31
0.0
  0
TEXT
  5
6D1
330
18
100
AcDbEntity
  8
TEXT
100
AcDbText
 10
1.911473214285713
 20
6.593749999999996
 30
0.0
 40
0.125
  1
_._._
 41
0.8
 51
10.0
  7
ROMANS
100
AcDbText
  0
TEXT
  5
6D2
330
18
100
AcDbEntity
  8
TEXT
100
AcDbText
 10
1.911473214285713
 20
8.093749999999996
 30
0.0
 40
0.125
  1
_._._
 41
0.8
 51
10.0
  7
ROMANS
100
AcDbText
  0
TEXT
  5
6D3
330
18
100
AcDbEntity
  8
TEXT
100
AcDbText
 10
1.911473214285713
 20
7.593749999999996
 30
0.0
 40
0.125
  1
_._._
 41
0.8
 51
10.0
  7
ROMANS
100
AcDbText
  0
TEXT
  5
6D4
330
18
100
AcDbEntity
  8
TEXT
100
AcDbText
 10
1.911473214285713
 20
7.093749999999996
 30
0.0
 40
0.125
  1
_._._
 41
0.8
 51
10.0
  7
ROMANS
100
AcDbText
  0
LINE
  5
6D5
330
18
100
AcDbEntity
  8
0
100
AcDbLine
 10
3.506562499999999
 20
8.156249999999996
 30
0.0
 11
4.256562499999999
 21
8.156249999999996
 31
0.0
  0
LINE
  5
6D6
330
18
100
AcDbEntity
  8
0
100
AcDbLine
 10
3.506562499999999
 20
7.656249999999996
 30
0.0
 11
4.256562499999999
 21
7.656249999999996
 31
0.0
  0
LINE
  5
6D7
330
18
100
AcDbEntity
  8
0
100
AcDbLine
 10
3.506562499999999
 20
7.156249999999996
 30
0.0
 11
4.256562499999999
 21
7.156249999999996
 31
0.0
  0
LINE
  5
6D8
330
18
100
AcDbEntity
  8
0
100
AcDbLine
 10
3.506562499999999
 20
6.656249999999996
 30
0.0
 11
4.256562499999999
 21
6.656249999999996
 31
0.0
  0
TEXT
  5
6D9
330
18
100
AcDbEntity
  8
TEXT
100
AcDbText
 10
2.659538690476189
 20
6.593749999999996
 30
0.0
 40
0.125
  1
OUT8
 41
0.8
 51
10.0
  7
ROMANS
100
AcDbText
  0
TEXT
  5
6DA
330
18
100
AcDbEntity
  8
TEXT
100
AcDbText
 10
2.664300595238094
 20
7.093749999999996
 30
0.0
 40
0.125
  1
OUT7
 41
0.8
 51
10.0
  7
ROMANS
100
AcDbText
  0
TEXT
  5
6DB
330
18
100
AcDbEntity
  8
TEXT
100
AcDbText
 10
2.664300595238094
 20
7.593749999999996
 30
0.0
 40
0.125
  1
OUT6
 41
0.8
 51
10.0
  7
ROMANS
100
AcDbText
  0
TEXT
  5
6DC
330
18
100
AcDbEntity
  8
TEXT
100
AcDbText
 10
3.279181547619046
 20
7.593749999999998
 30
0.0
 40
0.125
  1
16
 41
0.8
  7
ROMANS
 72
     4
 11
3.381562499999999
 21
7.656249999999998
 31
0.0
100
AcDbText
  0
LINE
  5
6DD
330
18
100
AcDbEntity
  8
0
100
AcDbLine
 10
3.506562499999999
 20
7.781249999999998
 30
0.0
 11
3.506562499999999
 21
7.531249999999998
 31
0.0
  0
LINE
  5
6DE
330
18
100
AcDbEntity
  8
0
100
AcDbLine
 10
3.506562499999999
 20
7.281249999999998
 30
0.0
 11
3.506562499999999
 21
7.031249999999998
 31
0.0
  0
TEXT
  5
6DF
330
18
100
AcDbEntity
  8
TEXT
100
AcDbText
 10
3.279181547619046
 20
6.593749999999998
 30
0.0
 40
0.125
  1
17
 41
0.8
  7
ROMANS
 72
     4
 11
3.381562499999999
 21
6.656249999999998
 31
0.0
100
AcDbText
  0
LINE
  5
6E0
330
18
100
AcDbEntity
  8
0
100
AcDbLine
 10
3.256562499999999
 20
6.781249999999998
 30
0.0
 11
3.506562499999999
 21
6.781249999999998
 31
0.0
  0
LINE
  5
6E1
330
18
100
AcDbEntity
  8
0
100
AcDbLine
 10
3.256562499999999
 20
6.531249999999998
 30
0.0
 11
3.506562499999999
 21
6.531249999999998
 31
0.0
  0
LINE
  5
6E2
330
18
100
AcDbEntity
  8
0
100
AcDbLine
 10
3.256562499999999
 20
7.031249999999998
 30
0.0
 11
3.506562499999999
 21
7.031249999999998
 31
0.0
  0
LINE
  5
6E3
330
18
100
AcDbEntity
  8
0
100
AcDbLine
 10
3.506562499999999
 20
6.781249999999998
 30
0.0
 11
3.506562499999999
 21
6.531249999999998
 31
0.0
  0
LINE
  5
6E4
330
18
100
AcDbEntity
  8
0
100
AcDbLine
 10
3.256562499999999
 20
7.281249999999998
 30
0.0
 11
3.506562499999999
 21
7.281249999999998
 31
0.0
  0
LINE
  5
6E5
330
18
100
AcDbEntity
  8
0
100
AcDbLine
 10
3.256562499999999
 20
7.531249999999998
 30
0.0
 11
3.506562499999999
 21
7.531249999999998
 31
0.0
  0
TEXT
  5
6E6
330
18
100
AcDbEntity
  8
TEXT
100
AcDbText
 10
3.333943452380951
 20
7.093749999999998
 30
0.0
 40
0.125
  1
5
 41
0.8
  7
ROMANS
 72
     4
 11
3.381562499999999
 21
7.156249999999998
 31
0.0
100
AcDbText
  0
TEXT
  5
6E7
330
18
100
AcDbEntity
  8
TEXT
100
AcDbText
 10
2.692872023809522
 20
8.093749999999996
 30
0.0
 40
0.125
  1
OUT5
 41
0.8
 51
10.0
  7
ROMANS
100
AcDbText
  0
LINE
  5
6E8
330
18
100
AcDbEntity
  8
0
100
AcDbLine
 10
3.256562499999999
 20
7.781249999999998
 30
0.0
 11
3.506562499999999
 21
7.781249999999998
 31
0.0
  0
LINE
  5
6E9
330
18
100
AcDbEntity
  8
0
100
AcDbLine
 10
3.256562499999999
 20
8.281249999999998
 30
0.0
 11
3.506562499999999
 21
8.281249999999998
 31
0.0
  0
LINE
  5
6EA
330
18
100
AcDbEntity
  8
0
100
AcDbLine
 10
3.256562499999999
 20
8.031249999999998
 30
0.0
 11
3.506562499999999
 21
8.031249999999998
 31
0.0
  0
TEXT
  5
6EB
330
18
100
AcDbEntity
  8
TEXT
100
AcDbText
 10
3.331562499999999
 20
8.093749999999998
 30
0.0
 40
0.125
  1
4
 41
0.8
  7
ROMANS
 72
     4
 11
3.381562499999999
 21
8.156249999999998
 31
0.0
100
AcDbText
  0
LINE
  5
6EC
330
18
100
AcDbEntity
  8
0
100
AcDbLine
 10
3.506562499999999
 20
8.281249999999998
 30
0.0
 11
3.506562499999999
 21
8.031249999999998
 31
0.0
  0
TEXT
  5
6ED
330
18
100
AcDbEntity
  8
TEXT
100
AcDbText
 10
4.260729166666665
 20
8.106249999999993
 30
0.0
 40
0.1
  1
____
 72
     1
 11
4.444062499999999
 21
8.106249999999993
 31
0.0
100
AcDbText
  0
LINE
  5
6EE
330
18
100
AcDbEntity
  8
0
100
AcDbLine
 10
4.631562499999999
 20
8.062499999999994
 30
0.0
 11
4.256562499999999
 21
8.062499999999994
 31
0.0
  0
LINE
  5
6EF
330
18
100
AcDbEntity
  8
0
100
AcDbLine
 10
4.631562499999999
 20
8.249999999999994
 30
0.0
 11
4.256562499999999
 21
8.249999999999994
 31
0.0
  0
LINE
  5
6F0
330
18
100
AcDbEntity
  8
0
100
AcDbLine
 10
4.631562499999999
 20
7.749999999999996
 30
0.0
 11
4.256562499999999
 21
7.749999999999996
 31
0.0
  0
TEXT
  5
6F1
330
18
100
AcDbEntity
  8
TEXT
100
AcDbText
 10
4.260729166666665
 20
7.606249999999995
 30
0.0
 40
0.1
  1
____
 72
     1
 11
4.444062499999999
 21
7.606249999999995
 31
0.0
100
AcDbText
  0
LINE
  5
6F2
330
18
100
AcDbEntity
  8
0
100
AcDbLine
 10
4.631562499999999
 20
7.562499999999996
 30
0.0
 11
4.256562499999999
 21
7.562499999999996
 31
0.0
  0
LINE
  5
6F3
330
18
100
AcDbEntity
  8
0
100
AcDbLine
 10
4.631562499999999
 20
7.249999999999996
 30
0.0
 11
4.256562499999999
 21
7.249999999999996
 31
0.0
  0
TEXT
  5
6F4
330
18
100
AcDbEntity
  8
TEXT
100
AcDbText
 10
4.260729166666665
 20
7.106249999999995
 30
0.0
 40
0.1
  1
____
 72
     1
 11
4.444062499999999
 21
7.106249999999995
 31
0.0
100
AcDbText
  0
LINE
  5
6F5
330
18
100
AcDbEntity
  8
0
100
AcDbLine
 10
4.631562499999999
 20
7.062499999999996
 30
0.0
 11
4.256562499999999
 21
7.062499999999996
 31
0.0
  0
TEXT
  5
6F6
330
18
100
AcDbEntity
  8
TEXT
100
AcDbText
 10
4.260729166666665
 20
6.606249999999993
 30
0.0
 40
0.1
  1
____
 72
     1
 11
4.444062499999999
 21
6.606249999999993
 31
0.0
100
AcDbText
  0
LINE
  5
6F7
330
18
100
AcDbEntity
  8
0
100
AcDbLine
 10
4.631562499999999
 20
6.562499999999994
 30
0.0
 11
4.256562499999999
 21
6.562499999999994
 31
0.0
  0
LINE
  5
6F8
330
18
100
AcDbEntity
  8
0
100
AcDbLine
 10
4.631562499999999
 20
6.749999999999994
 30
0.0
 11
4.256562499999999
 21
6.749999999999994
 31
0.0
  0
LINE
  5
6F9
330
18
100
AcDbEntity
  8
0
100
AcDbLine
 10
4.256562499999999
 20
7.749999999999996
 30
0.0
 11
4.256562499999999
 21
7.562499999999996
 31
0.0
  0
LINE
  5
6FA
330
18
100
AcDbEntity
  8
0
100
AcDbLine
 10
4.256562499999999
 20
6.749999999999994
 30
0.0
 11
4.256562499999999
 21
6.562499999999994
 31
0.0
  0
LINE
  5
6FB
330
18
100
AcDbEntity
  8
0
100
AcDbLine
 10
4.256562499999999
 20
7.249999999999996
 30
0.0
 11
4.256562499999999
 21
7.062499999999996
 31
0.0
  0
LINE
  5
6FC
330
18
100
AcDbEntity
  8
0
100
AcDbLine
 10
4.256562499999999
 20
8.249999999999994
 30
0.0
 11
4.256562499999999
 21
8.062499999999994
 31
0.0
  0
LINE
  5
6FD
330
18
100
AcDbEntity
  8
0
100
AcDbLine
 10
4.631562499999999
 20
7.749999999999996
 30
0.0
 11
4.631562499999999
 21
7.562499999999996
 31
0.0
  0
LINE
  5
6FE
330
18
100
AcDbEntity
  8
0
100
AcDbLine
 10
4.631562499999999
 20
6.749999999999994
 30
0.0
 11
4.631562499999999
 21
6.562499999999994
 31
0.0
  0
LINE
  5
6FF
330
18
100
AcDbEntity
  8
0
100
AcDbLine
 10
4.631562499999999
 20
7.249999999999996
 30
0.0
 11
4.631562499999999
 21
7.062499999999996
 31
0.0
  0
LINE
  5
700
330
18
100
AcDbEntity
  8
0
100
AcDbLine
 10
4.631562499999999
 20
8.249999999999994
 30
0.0
 11
4.631562499999999
 21
8.062499999999994
 31
0.0
  0
LINE
  5
701
330
18
100
AcDbEntity
  8
0
100
AcDbLine
 10
7.579962499999998
 20
8.156249999999996
 30
0.0
 11
8.194062499999999
 21
8.156249999999998
 31
0.0
  0
LINE
  5
702
330
18
100
AcDbEntity
  8
0
100
AcDbLine
 10
7.5799625
 20
7.656249999999998
 30
0.0
 11
8.194062499999999
 21
7.656249999999998
 31
0.0
  0
LINE
  5
703
330
18
100
AcDbEntity
  8
0
100
AcDbLine
 10
7.579962499999998
 20
7.156249999999996
 30
0.0
 11
8.194062499999999
 21
7.156249999999998
 31
0.0
  0
LINE
  5
704
330
18
100
AcDbEntity
  8
0
100
AcDbLine
 10
7.579962499999998
 20
6.65625
 30
0.0
 11
8.194062499999999
 21
6.65625
 31
0.0
  0
TEXT
  5
705
330
18
100
AcDbEntity
  8
TEXT
100
AcDbText
 10
8.387068452380951
 20
7.593749999999994
 30
0.0
 40
0.125
  1
*
 41
0.8
 51
10.0
  7
ROMANS
100
AcDbText
  0
LINE
  5
70A
330
18
100
AcDbEntity
  8
0
100
AcDbLine
 10
8.194062500000001
 20
7.155249999999998
 30
0.0
 11
8.194062500000001
 21
7.157249999999997
 31
0.0
  0
LINE
  5
70B
330
18
100
AcDbEntity
  8
0
100
AcDbLine
 10
8.1950625
 20
7.156249999999998
 30
0.0
 11
8.193062500000001
 21
7.156249999999998
 31
0.0
  0
CIRCLE
  5
70C
330
18
100
AcDbEntity
  8
0
100
AcDbCircle
 10
8.194062500000001
 20
7.156249999999998
 30
0.0
 40
0.0113
  0
CIRCLE
  5
70D
330
18
100
AcDbEntity
  8
0
100
AcDbCircle
 10
8.194062500000001
 20
7.156249999999998
 30
0.0
 40
0.0213
  0
LINE
  5
70E
330
18
100
AcDbEntity
  8
0
100
AcDbLine
 10
8.194062500000002
 20
7.655249999999998
 30
0.0
 11
8.194062500000002
 21
7.657249999999997
 31
0.0
  0
LINE
  5
70F
330
18
100
AcDbEntity
  8
0
100
AcDbLine
 10
8.1950625
 20
7.656249999999998
 30
0.0
 11
8.193062500000001
 21
7.656249999999998
 31
0.0
  0
CIRCLE
  5
710
330
18
100
AcDbEntity
  8
0
100
AcDbCircle
 10
8.194062500000002
 20
7.656249999999998
 30
0.0
 40
0.0113
  0
CIRCLE
  5
711
330
18
100
AcDbEntity
  8
0
100
AcDbCircle
 10
8.194062500000002
 20
7.656249999999998
 30
0.0
 40
0.0213
  0
TEXT
  5
713
330
18
100
AcDbEntity
  8
TEXT
100
AcDbText
 10
8.387068452380951
 20
7.093749999999994
 30
0.0
 40
0.125
  1
*
 41
0.8
 51
10.0
  7
ROMANS
100
AcDbText
  0
LINE
  5
714
330
18
100
AcDbEntity
  8
0
100
AcDbLine
 10
8.194062500000001
 20
8.155249999999998
 30
0.0
 11
8.194062500000001
 21
8.157249999999997
 31
0.0
  0
LINE
  5
715
330
18
100
AcDbEntity
  8
0
100
AcDbLine
 10
8.1950625
 20
8.156249999999998
 30
0.0
 11
8.193062500000001
 21
8.156249999999998
 31
0.0
  0
CIRCLE
  5
716
330
18
100
AcDbEntity
  8
0
100
AcDbCircle
 10
8.194062500000001
 20
8.156249999999998
 30
0.0
 40
0.0113
  0
CIRCLE
  5
717
330
18
100
AcDbEntity
  8
0
100
AcDbCircle
 10
8.194062500000001
 20
8.156249999999998
 30
0.0
 40
0.0213
  0
TEXT
  5
718
330
18
100
AcDbEntity
  8
TEXT
100
AcDbText
 10
8.387068452380951
 20
8.093749999999992
 30
0.0
 40
0.125
  1
*
 41
0.8
 51
10.0
  7
ROMANS
100
AcDbText
  0
LINE
  5
7D1
330
18
100
AcDbEntity
  8
DASH
100
AcDbLine
 10
1.709687499999999
 20
6.156249999999996
 30
0.0
 11
3.256562499999999
 21
6.156249999999996
 31
0.0
  0
TEXT
  5
9C7
330
18
100
AcDbEntity
  8
TEXT
100
AcDbText
 10
8.387068452380951
 20
6.593749999999998
 30
0.0
 40
0.125
  1
*
 41
0.8
 51
10.0
  7
ROMANS
100
AcDbText
  0
TEXT
  5
9D8
330
18
100
AcDbEntity
  8
TEXT
100
AcDbText
 10
1.692648809523808
 20
5.989583333333332
 30
0.0
 40
0.1
  1
Continued On Next Sheet
 41
0.8
  7
ROMANS
 72
     1
 11
2.483124999999999
 21
5.956249999999998
 31
0.0
100
AcDbText
 73
     1
  0
TEXT
  5
9DF
330
18
100
AcDbEntity
  8
TEXT
100
AcDbText
 10
4.253324404761904
 20
5.863392857142851
 30
0.0
 40
0.1
  1
NOTE: See the next Sheet for Group #2 Output Detail.
 41
0.8
  7
ROMANS
 72
     4
 11
5.988562499999999
 21
5.906249999999994
 31
0.0
100
AcDbText
  0
ENDSEC
  0
SECTION
  2
OBJECTS
  0
DICTIONARY
  5
C
330
0
100
AcDbDictionary
281
     1
  3
ACAD_COLOR
350
9FE
  3
ACAD_GROUP
350
D
  3
ACAD_LAYOUT
350
A01
  3
ACAD_MATERIAL
350
9FD
  3
ACAD_MLINESTYLE
350
E
  3
ACAD_PLOTSETTINGS
350
A02
  3
ACAD_PLOTSTYLENAME
350
9FB
  3
ACAD_TABLESTYLE
350
9FF
  3
ACDBHEADERROUNDTRIPXREC
350
A0E
  3
AcDbVariableDictionary
350
A08
  3
DWGPROPS
350
A0D
  0
DICTIONARY
  5
9FE
102
{ACAD_REACTORS
330
C
102
}
330
C
100
AcDbDictionary
281
     1
  0
DICTIONARY
  5
D
102
{ACAD_REACTORS
330
C
102
}
330
C
100
AcDbDictionary
281
     1
  0
DICTIONARY
  5
A01
102
{ACAD_REACTORS
330
C
102
}
330
C
100
AcDbDictionary
281
     1
  3
Layout1
350
A04
  3
Model
350
A03
  0
DICTIONARY
  5
9FD
102
{ACAD_REACTORS
330
C
102
}
330
C
100
AcDbDictionary
281
     1
  0
DICTIONARY
  5
E
102
{ACAD_REACTORS
330
C
102
}
330
C
100
AcDbDictionary
281
     1
  3
STANDARD
350
1B
  0
DICTIONARY
  5
A02
102
{ACAD_REACTORS
330
C
102
}
330
C
100
AcDbDictionary
281
     1
  0
ACDBDICTIONARYWDFLT
  5
9FB
102
{ACAD_REACTORS
330
C
102
}
330
C
100
AcDbDictionary
281
     1
  3
Normal
350
9FC
100
AcDbDictionaryWithDefault
340
9FC
  0
DICTIONARY
  5
9FF
102
{ACAD_REACTORS
330
C
102
}
330
C
100
AcDbDictionary
281
     1
  3
Standard
350
A00
  0
DICTIONARY
  5
A0E
102
{ACAD_REACTORS
330
C
102
}
330
C
100
AcDbDictionary
281
     1
  0
DICTIONARY
  5
A08
102
{ACAD_REACTORS
330
C
102
}
330
C
100
AcDbDictionary
281
     1
  3
CTABLESTYLE
350
A09
  3
DIMASSOC
350
A0A
  3
PROJECTNAME
350
A0B
  0
XRECORD
  5
A0D
102
{ACAD_REACTORS
330
C
102
}
330
C
100
AcDbXrecord
280
     1
  1
DWGPROPS COOKIE
  2

  3

  4

  6

  7

  8
gregory.mumm
  9

300
=
301
=
302
=
303
=
304
=
305
=
306
=
307
=
308
=
309
=
 40
0.481701712962963
 41
2449270.545578588
 42
2453641.583856157
  1

 90
        0
  0
LAYOUT
  5
A04
102
{ACAD_XDICTIONARY
360
A11
102
}
102
{ACAD_REACTORS
330
A01
102
}
330
A01
100
AcDbPlotSettings
  1

  2
\\Fdlfs06\Engineering - Digital PrintServer 17/600 C
  4

  6

 40
0.0
 41
0.0
 42
0.0
 43
0.0
 44
0.0
 45
0.0
 46
0.0
 47
0.0
 48
0.0
 49
0.0
140
0.0
141
0.0
142
1.0
143
1.0
 70
   688
 72
     0
 73
     0
 74
     5
  7

 75
    16
147
1.0
148
0.0
149
0.0
100
AcDbLayout
  1
Layout1
 70
     0
 71
     1
 10
0.0
 20
0.0
 11
12.0
 21
9.0
 12
0.0
 22
0.0
 32
0.0
 14
1.000000000000000E+20
 24
1.000000000000000E+20
 34
1.000000000000000E+20
 15
-1.000000000000000E+20
 25
-1.000000000000000E+20
 35
-1.000000000000000E+20
146
0.0
 13
0.0
 23
0.0
 33
0.0
 16
1.0
 26
0.0
 36
0.0
 17
0.0
 27
1.0
 37
0.0
 76
     0
330
15
  0
LAYOUT
  5
A03
102
{ACAD_XDICTIONARY
360
A0F
102
}
102
{ACAD_REACTORS
330
A01
102
}
330
A01
100
AcDbPlotSettings
  1

  2
\\Fdlfs06\Engineering - Digital PrintServer 17/600 C
  4

  6

 40
0.0
 41
0.0
 42
0.0
 43
0.0
 44
0.0
 45
0.0
 46
0.0
 47
0.0
 48
0.0
 49
0.0
140
0.0
141
0.0
142
1.0
143
1.0
 70
  1712
 72
     0
 73
     0
 74
     0
  7

 75
     0
147
1.0
148
0.0
149
0.0
100
AcDbLayout
  1
Model
 70
     1
 71
     0
 10
0.0
 20
0.0
 11
12.0
 21
9.0
 12
0.0
 22
0.0
 32
0.0
 14
0.0
 24
0.0
 34
0.0
 15
0.0
 25
0.0
 35
0.0
146
0.0
 13
0.0
 23
0.0
 33
0.0
 16
1.0
 26
0.0
 36
0.0
 17
0.0
 27
1.0
 37
0.0
 76
     0
330
18
  0
MLINESTYLE
  5
1B
102
{ACAD_REACTORS
330
E
102
}
330
E
100
AcDbMlineStyle
  2
STANDARD
 70
     0
  3

 62
     0
 51
90.0
 52
90.0
 71
     2
 49
0.5
 62
   256
  6
BYLAYER
 49
-0.5
 62
   256
  6
BYLAYER
  0
ACDBPLACEHOLDER
  5
9FC
102
{ACAD_REACTORS
330
9FB
102
}
330
9FB
  0
TABLESTYLE
  5
A00
102
{ACAD_REACTORS
330
9FF
102
}
330
9FF
100
AcDbTableStyle
  3
Standard
 70
     0
 71
     0
 40
0.06
 41
0.06
280
     0
281
     0
  7
STANDARD
140
0.18
170
     2
 62
     0
 63
     7
283
     0
274
    -2
284
     1
 64
     0
275
    -2
285
     1
 65
     0
276
    -2
286
     1
 66
     0
277
    -2
287
     1
 67
     0
278
    -2
288
     1
 68
     0
279
    -2
289
     1
 69
     0
  7
STANDARD
140
0.25
170
     5
 62
     0
 63
     7
283
     0
274
    -2
284
     1
 64
     0
275
    -2
285
     1
 65
     0
276
    -2
286
     1
 66
     0
277
    -2
287
     1
 67
     0
278
    -2
288
     1
 68
     0
279
    -2
289
     1
 69
     0
  7
STANDARD
140
0.18
170
     5
 62
     0
 63
     7
283
     0
274
    -2
284
     1
 64
     0
275
    -2
285
     1
 65
     0
276
    -2
286
     1
 66
     0
277
    -2
287
     1
 67
     0
278
    -2
288
     1
 68
     0
279
    -2
289
     1
 69
     0
  0
DICTIONARYVAR
  5
A09
102
{ACAD_REACTORS
330
A08
102
}
330
A08
100
DictionaryVariables
280
     0
  1
STANDARD
  0
DICTIONARYVAR
  5
A0A
102
{ACAD_REACTORS
330
A08
102
}
330
A08
100
DictionaryVariables
280
     0
  1
1
  0
DICTIONARYVAR
  5
A0B
102
{ACAD_REACTORS
330
A08
102
}
330
A08
100
DictionaryVariables
280
     0
  1

  0
DICTIONARY
  5
A11
330
A04
100
AcDbDictionary
280
     1
281
     1
  3
ACAD_XREC_ROUNDTRIP
360
A12
  0
DICTIONARY
  5
A0F
330
A03
100
AcDbDictionary
280
     1
281
     1
  3
ACAD_XREC_ROUNDTRIP
360
A10
  0
XRECORD
  5
A12
102
{ACAD_REACTORS
330
A11
102
}
330
A11
100
AcDbXrecord
280
     1
102
SHADEPLOT
 70
     0
102
SHADEPLOTRESLEVEL
 70
     2
102
SHADEPLOTCUSTOMDPI
 70
   300
  0
XRECORD
  5
A10
102
{ACAD_REACTORS
330
A0F
102
}
330
A0F
100
AcDbXrecord
280
     1
102
SHADEPLOT
 70
     0
102
SHADEPLOTRESLEVEL
 70
     2
102
SHADEPLOTCUSTOMDPI
 70
   300
  0
ENDSEC
  0
EOF
