  0
SECTION
  2
HEADER
  9
$ACADVER
  1
AC1012
  9
$DWGCODEPAGE
  3
ANSI_1252
  9
$INSBASE
 10
0.0
 20
0.0
 30
0.0
  9
$EXTMIN
 10
-2.025
 20
-2.403732
 30
0.0
  9
$EXTMAX
 10
2.025
 20
2.403732
 30
0.0
  9
$LIMMIN
 10
-2.241959
 20
-2.571408
  9
$LIMMAX
 10
2.299724
 20
2.715902
  9
$ORTHOMODE
 70
     1
  9
$REGENMODE
 70
     1
  9
$FILLMODE
 70
     1
  9
$QTEXTMODE
 70
     0
  9
$MIRRTEXT
 70
     1
  9
$DRAGMODE
 70
     2
  9
$LTSCALE
 40
0.25
  9
$OSMODE
 70
     0
  9
$ATTMODE
 70
     1
  9
$TEXTSIZE
 40
0.05
  9
$TRACEWID
 40
0.05
  9
$TEXTSTYLE
  7
STANDARD
  9
$CLAYER
  8
0
  9
$CELTYPE
  6
BYLAYER
  9
$CECOLOR
 62
   256
  9
$CELTSCALE
 40
1.0
  9
$DELOBJ
 70
     1
  9
$DISPSILH
 70
     0
  9
$DIMSCALE
 40
1.0
  9
$DIMASZ
 40
0.18
  9
$DIMEXO
 40
0.0625
  9
$DIMDLI
 40
0.38
  9
$DIMRND
 40
0.0
  9
$DIMDLE
 40
0.0
  9
$DIMEXE
 40
0.18
  9
$DIMTP
 40
0.0
  9
$DIMTM
 40
0.0
  9
$DIMTXT
 40
0.18
  9
$DIMCEN
 40
0.09
  9
$DIMTSZ
 40
0.0
  9
$DIMTOL
 70
     0
  9
$DIMLIM
 70
     0
  9
$DIMTIH
 70
     1
  9
$DIMTOH
 70
     1
  9
$DIMSE1
 70
     0
  9
$DIMSE2
 70
     0
  9
$DIMTAD
 70
     0
  9
$DIMZIN
 70
     0
  9
$DIMBLK
  1

  9
$DIMASO
 70
     1
  9
$DIMSHO
 70
     1
  9
$DIMPOST
  1

  9
$DIMAPOST
  1

  9
$DIMALT
 70
     0
  9
$DIMALTD
 70
     2
  9
$DIMALTF
 40
25.4
  9
$DIMLFAC
 40
1.0
  9
$DIMTOFL
 70
     0
  9
$DIMTVP
 40
0.0
  9
$DIMTIX
 70
     0
  9
$DIMSOXD
 70
     0
  9
$DIMSAH
 70
     0
  9
$DIMBLK1
  1

  9
$DIMBLK2
  1

  9
$DIMSTYLE
  2
STANDARD
  9
$DIMCLRD
 70
     0
  9
$DIMCLRE
 70
     0
  9
$DIMCLRT
 70
     0
  9
$DIMTFAC
 40
1.0
  9
$DIMGAP
 40
0.09
  9
$DIMJUST
 70
     0
  9
$DIMSD1
 70
     0
  9
$DIMSD2
 70
     0
  9
$DIMTOLJ
 70
     1
  9
$DIMTZIN
 70
     0
  9
$DIMALTZ
 70
     0
  9
$DIMALTTZ
 70
     0
  9
$DIMFIT
 70
     3
  9
$DIMUPT
 70
     0
  9
$DIMUNIT
 70
     2
  9
$DIMDEC
 70
     4
  9
$DIMTDEC
 70
     4
  9
$DIMALTU
 70
     2
  9
$DIMALTTD
 70
     2
  9
$DIMTXSTY
  7
STANDARD
  9
$DIMAUNIT
 70
     0
  9
$LUNITS
 70
     2
  9
$LUPREC
 70
     4
  9
$SKETCHINC
 40
0.1
  9
$FILLETRAD
 40
0.0625
  9
$AUNITS
 70
     0
  9
$AUPREC
 70
     0
  9
$MENU
  1
acad
  9
$ELEVATION
 40
0.0
  9
$PELEVATION
 40
0.0
  9
$THICKNESS
 40
0.0
  9
$LIMCHECK
 70
     0
  9
$BLIPMODE
 70
     1
  9
$CHAMFERA
 40
0.0
  9
$CHAMFERB
 40
0.0
  9
$CHAMFERC
 40
0.0
  9
$CHAMFERD
 40
0.0
  9
$SKPOLY
 70
     0
  9
$TDCREATE
 40
2450890.276046991
  9
$TDUPDATE
 40
2451087.312124884
  9
$TDINDWG
 40
0.0386214120
  9
$TDUSRTIMER
 40
0.0386214120
  9
$USRTIMER
 70
     1
  9
$ANGBASE
 50
0.0
  9
$ANGDIR
 70
     0
  9
$PDMODE
 70
     0
  9
$PDSIZE
 40
0.0
  9
$PLINEWID
 40
0.0
  9
$COORDS
 70
     1
  9
$SPLFRAME
 70
     0
  9
$SPLINETYPE
 70
     6
  9
$SPLINESEGS
 70
     8
  9
$ATTDIA
 70
     0
  9
$ATTREQ
 70
     1
  9
$HANDLING
 70
     1
  9
$HANDSEED
  5
1A7
  9
$SURFTAB1
 70
     6
  9
$SURFTAB2
 70
     6
  9
$SURFTYPE
 70
     6
  9
$SURFU
 70
     6
  9
$SURFV
 70
     6
  9
$UCSNAME
  2

  9
$UCSORG
 10
0.0
 20
0.0
 30
0.0
  9
$UCSXDIR
 10
1.0
 20
0.0
 30
0.0
  9
$UCSYDIR
 10
0.0
 20
1.0
 30
0.0
  9
$PUCSNAME
  2

  9
$PUCSORG
 10
0.0
 20
0.0
 30
0.0
  9
$PUCSXDIR
 10
1.0
 20
0.0
 30
0.0
  9
$PUCSYDIR
 10
0.0
 20
1.0
 30
0.0
  9
$USERI1
 70
     0
  9
$USERI2
 70
     0
  9
$USERI3
 70
     0
  9
$USERI4
 70
     0
  9
$USERI5
 70
     0
  9
$USERR1
 40
0.0
  9
$USERR2
 40
0.0
  9
$USERR3
 40
0.0
  9
$USERR4
 40
0.0
  9
$USERR5
 40
0.0
  9
$WORLDVIEW
 70
     1
  9
$SHADEDGE
 70
     3
  9
$SHADEDIF
 70
    70
  9
$TILEMODE
 70
     1
  9
$MAXACTVP
 70
    16
  9
$PINSBASE
 10
0.0
 20
0.0
 30
0.0
  9
$PLIMCHECK
 70
     0
  9
$PEXTMIN
 10
1.000000E+20
 20
1.000000E+20
 30
1.000000E+20
  9
$PEXTMAX
 10
-1.000000E+20
 20
-1.000000E+20
 30
-1.000000E+20
  9
$PLIMMIN
 10
0.0
 20
0.0
  9
$PLIMMAX
 10
12.0
 20
9.0
  9
$UNITMODE
 70
     0
  9
$VISRETAIN
 70
     0
  9
$PLINEGEN
 70
     0
  9
$PSLTSCALE
 70
     1
  9
$TREEDEPTH
 70
  3020
  9
$PICKSTYLE
 70
     1
  9
$CMLSTYLE
  2
STANDARD
  9
$CMLJUST
 70
     0
  9
$CMLSCALE
 40
1.0
  9
$SAVEIMAGES
 70
     1
  0
ENDSEC
  0
SECTION
  2
CLASSES
  0
ENDSEC
  0
SECTION
  2
TABLES
  0
TABLE
  2
VPORT
  5
8
100
AcDbSymbolTable
 70
     2
  0
VPORT
  5
1A6
100
AcDbSymbolTableRecord
100
AcDbViewportTableRecord
  2
*ACTIVE
 70
     0
 10
0.0
 20
0.0
 11
1.0
 21
1.0
 12
2.891026
 22
0.263579
 13
0.0
 23
0.0
 14
1.0
 24
1.0
 15
0.0
 25
0.0
 16
0.0
 26
0.0
 36
1.0
 17
0.0
 27
0.0
 37
0.0
 40
5.669974
 41
1.810585
 42
50.0
 43
0.0
 44
0.0
 50
0.0
 51
0.0
 71
     0
 72
   100
 73
     1
 74
     1
 75
     0
 76
     0
 77
     0
 78
     0
  0
ENDTAB
  0
TABLE
  2
LTYPE
  5
5
100
AcDbSymbolTable
 70
     2
  0
LTYPE
  5
14
100
AcDbSymbolTableRecord
100
AcDbLinetypeTableRecord
  2
BYBLOCK
 70
     0
  3

 72
    65
 73
     0
 40
0.0
  0
LTYPE
  5
15
100
AcDbSymbolTableRecord
100
AcDbLinetypeTableRecord
  2
BYLAYER
 70
     0
  3

 72
    65
 73
     0
 40
0.0
  0
LTYPE
  5
16
100
AcDbSymbolTableRecord
100
AcDbLinetypeTableRecord
  2
CONTINUOUS
 70
     0
  3
Solid line
 72
    65
 73
     0
 40
0.0
  0
LTYPE
  5
29
100
AcDbSymbolTableRecord
100
AcDbLinetypeTableRecord
  2
CENTER
 70
     0
  3
____ _ ____ _ ____ _ ____ _ ____ _ ____ _ ____ 
 72
    65
 73
     4
 40
2.0
 49
1.25
 74
     0
 49
-0.25
 74
     0
 49
0.25
 74
     0
 49
-0.25
 74
     0
  0
ENDTAB
  0
TABLE
  2
LAYER
  5
2
100
AcDbSymbolTable
 70
     3
  0
LAYER
  5
F
100
AcDbSymbolTableRecord
100
AcDbLayerTableRecord
  2
0
 70
     0
 62
     7
  6
CONTINUOUS
  0
LAYER
  5
2E
100
AcDbSymbolTableRecord
100
AcDbLayerTableRecord
  2
CEN
 70
     0
 62
     2
  6
CENTER
  0
LAYER
  5
30
100
AcDbSymbolTableRecord
100
AcDbLayerTableRecord
  2
TEXT
 70
     0
 62
     2
  6
CONTINUOUS
  0
ENDTAB
  0
TABLE
  2
STYLE
  5
3
100
AcDbSymbolTable
 70
     1
  0
STYLE
  5
10
100
AcDbSymbolTableRecord
100
AcDbTextStyleTableRecord
  2
STANDARD
 70
     0
 40
0.0
 41
1.0
 50
0.0
 71
     0
 42
0.05
  3
txt
  4

  0
ENDTAB
  0
TABLE
  2
VIEW
  5
6
100
AcDbSymbolTable
 70
     0
  0
ENDTAB
  0
TABLE
  2
UCS
  5
7
100
AcDbSymbolTable
 70
     0
  0
ENDTAB
  0
TABLE
  2
APPID
  5
9
100
AcDbSymbolTable
 70
     1
  0
APPID
  5
11
100
AcDbSymbolTableRecord
100
AcDbRegAppTableRecord
  2
ACAD
 70
     0
  0
ENDTAB
  0
TABLE
  2
DIMSTYLE
  5
A
100
AcDbSymbolTable
 70
     1
  0
DIMSTYLE
105
1D
100
AcDbSymbolTableRecord
100
AcDbDimStyleTableRecord
  2
STANDARD
 70
     0
  3

  4

  5

  6

  7

 40
1.0
 41
0.18
 42
0.0625
 43
0.38
 44
0.18
 45
0.0
 46
0.0
 47
0.0
 48
0.0
140
0.18
141
0.09
142
0.0
143
25.4
144
1.0
145
0.0
146
1.0
147
0.09
 71
     0
 72
     0
 73
     1
 74
     1
 75
     0
 76
     0
 77
     0
 78
     0
170
     0
171
     2
172
     0
173
     0
174
     0
175
     0
176
     0
177
     0
178
     0
270
     2
271
     4
272
     4
273
     2
274
     2
340
10
275
     0
280
     0
281
     0
282
     0
283
     1
284
     0
285
     0
286
     0
287
     3
288
     0
  0
ENDTAB
  0
TABLE
  2
BLOCK_RECORD
  5
1
100
AcDbSymbolTable
 70
     1
  0
BLOCK_RECORD
  5
1A
100
AcDbSymbolTableRecord
100
AcDbBlockTableRecord
  2
*MODEL_SPACE
  0
BLOCK_RECORD
  5
17
100
AcDbSymbolTableRecord
100
AcDbBlockTableRecord
  2
*PAPER_SPACE
  0
BLOCK_RECORD
  5
6C
100
AcDbSymbolTableRecord
100
AcDbBlockTableRecord
  2
PCON_5
  0
ENDTAB
  0
ENDSEC
  0
SECTION
  2
BLOCKS
  0
BLOCK
  5
1B
100
AcDbEntity
  8
0
100
AcDbBlockBegin
  2
*MODEL_SPACE
 70
     0
 10
0.0
 20
0.0
 30
0.0
  3
*MODEL_SPACE
  1

  0
ENDBLK
  5
1C
100
AcDbEntity
  8
0
100
AcDbBlockEnd
  0
BLOCK
  5
18
100
AcDbEntity
 67
     1
  8
0
100
AcDbBlockBegin
  2
*PAPER_SPACE
 70
     0
 10
0.0
 20
0.0
 30
0.0
  3
*PAPER_SPACE
  1

  0
ENDBLK
  5
19
100
AcDbEntity
 67
     1
  8
0
100
AcDbBlockEnd
  0
BLOCK
  5
96
100
AcDbEntity
  8
0
100
AcDbBlockBegin
  2
PCON_5
 70
     0
 10
0.0
 20
0.0
 30
0.0
  3
PCON_5
  1

  0
LINE
  5
6D
100
AcDbEntity
  8
0
100
AcDbLine
 10
0.0
 20
0.992
 30
0.0
 11
0.0
 21
0.0
 31
0.0
  0
LINE
  5
6E
100
AcDbEntity
  8
0
100
AcDbLine
 10
-0.4895
 20
0.992
 30
0.0
 11
-0.4895
 21
0.0
 31
0.0
  0
LINE
  5
6F
100
AcDbEntity
  8
0
100
AcDbLine
 10
0.0
 20
0.0
 30
0.0
 11
-0.4895
 21
0.0
 31
0.0
  0
LINE
  5
70
100
AcDbEntity
  8
0
100
AcDbLine
 10
0.0
 20
0.992
 30
0.0
 11
-0.4895
 21
0.992
 31
0.0
  0
LINE
  5
71
100
AcDbEntity
  8
0
100
AcDbLine
 10
-0.4235
 20
0.992
 30
0.0
 11
-0.4235
 21
0.0
 31
0.0
  0
CIRCLE
  5
72
100
AcDbEntity
  8
0
100
AcDbCircle
 10
-0.2605
 20
0.102
 30
0.0
 40
0.077
  0
CIRCLE
  5
73
100
AcDbEntity
  8
0
100
AcDbCircle
 10
-0.2605
 20
0.102
 30
0.0
 40
0.075
  0
LINE
  5
74
100
AcDbEntity
  8
0
100
AcDbLine
 10
-0.189789
 20
0.127
 30
0.0
 11
-0.331211
 21
0.127
 31
0.0
  0
LINE
  5
75
100
AcDbEntity
  8
0
100
AcDbLine
 10
-0.189789
 20
0.077
 30
0.0
 11
-0.331211
 21
0.077
 31
0.0
  0
LINE
  5
76
100
AcDbEntity
  8
0
100
AcDbLine
 10
-0.331211
 20
0.077
 30
0.0
 11
-0.331211
 21
0.127
 31
0.0
  0
LINE
  5
77
100
AcDbEntity
  8
0
100
AcDbLine
 10
-0.189789
 20
0.127
 30
0.0
 11
-0.189789
 21
0.077
 31
0.0
  0
SOLID
  5
78
100
AcDbEntity
  8
0
100
AcDbTrace
 10
-0.189789
 20
0.127
 30
0.0
 11
-0.331211
 21
0.127
 31
0.0
 12
-0.189789
 22
0.077
 32
0.0
 13
-0.331211
 23
0.077
 33
0.0
  0
SOLID
  5
79
100
AcDbEntity
  8
0
100
AcDbTrace
 10
-0.189789
 20
0.324
 30
0.0
 11
-0.331211
 21
0.324
 31
0.0
 12
-0.189789
 22
0.274
 32
0.0
 13
-0.331211
 23
0.274
 33
0.0
  0
LINE
  5
7A
100
AcDbEntity
  8
0
100
AcDbLine
 10
-0.189789
 20
0.324
 30
0.0
 11
-0.189789
 21
0.274
 31
0.0
  0
LINE
  5
7B
100
AcDbEntity
  8
0
100
AcDbLine
 10
-0.331211
 20
0.274
 30
0.0
 11
-0.331211
 21
0.324
 31
0.0
  0
LINE
  5
7C
100
AcDbEntity
  8
0
100
AcDbLine
 10
-0.189789
 20
0.274
 30
0.0
 11
-0.331211
 21
0.274
 31
0.0
  0
LINE
  5
7D
100
AcDbEntity
  8
0
100
AcDbLine
 10
-0.189789
 20
0.324
 30
0.0
 11
-0.331211
 21
0.324
 31
0.0
  0
CIRCLE
  5
7E
100
AcDbEntity
  8
0
100
AcDbCircle
 10
-0.2605
 20
0.299
 30
0.0
 40
0.075
  0
CIRCLE
  5
7F
100
AcDbEntity
  8
0
100
AcDbCircle
 10
-0.2605
 20
0.299
 30
0.0
 40
0.077
  0
CIRCLE
  5
80
100
AcDbEntity
  8
0
100
AcDbCircle
 10
-0.2605
 20
0.496
 30
0.0
 40
0.077
  0
CIRCLE
  5
81
100
AcDbEntity
  8
0
100
AcDbCircle
 10
-0.2605
 20
0.496
 30
0.0
 40
0.075
  0
LINE
  5
82
100
AcDbEntity
  8
0
100
AcDbLine
 10
-0.189789
 20
0.521
 30
0.0
 11
-0.331211
 21
0.521
 31
0.0
  0
LINE
  5
83
100
AcDbEntity
  8
0
100
AcDbLine
 10
-0.189789
 20
0.471
 30
0.0
 11
-0.331211
 21
0.471
 31
0.0
  0
LINE
  5
84
100
AcDbEntity
  8
0
100
AcDbLine
 10
-0.331211
 20
0.471
 30
0.0
 11
-0.331211
 21
0.521
 31
0.0
  0
LINE
  5
85
100
AcDbEntity
  8
0
100
AcDbLine
 10
-0.189789
 20
0.521
 30
0.0
 11
-0.189789
 21
0.471
 31
0.0
  0
SOLID
  5
86
100
AcDbEntity
  8
0
100
AcDbTrace
 10
-0.189789
 20
0.521
 30
0.0
 11
-0.331211
 21
0.521
 31
0.0
 12
-0.189789
 22
0.471
 32
0.0
 13
-0.331211
 23
0.471
 33
0.0
  0
CIRCLE
  5
87
100
AcDbEntity
  8
0
100
AcDbCircle
 10
-0.2605
 20
0.897
 30
0.0
 40
0.077
  0
CIRCLE
  5
88
100
AcDbEntity
  8
0
100
AcDbCircle
 10
-0.2605
 20
0.897
 30
0.0
 40
0.075
  0
LINE
  5
89
100
AcDbEntity
  8
0
100
AcDbLine
 10
-0.189789
 20
0.922
 30
0.0
 11
-0.331211
 21
0.922
 31
0.0
  0
LINE
  5
8A
100
AcDbEntity
  8
0
100
AcDbLine
 10
-0.189789
 20
0.872
 30
0.0
 11
-0.331211
 21
0.872
 31
0.0
  0
SOLID
  5
8B
100
AcDbEntity
  8
0
100
AcDbTrace
 10
-0.189789
 20
0.922
 30
0.0
 11
-0.331211
 21
0.922
 31
0.0
 12
-0.189789
 22
0.872
 32
0.0
 13
-0.331211
 23
0.872
 33
0.0
  0
SOLID
  5
8C
100
AcDbEntity
  8
0
100
AcDbTrace
 10
-0.189789
 20
0.725
 30
0.0
 11
-0.331211
 21
0.725
 31
0.0
 12
-0.189789
 22
0.675
 32
0.0
 13
-0.331211
 23
0.675
 33
0.0
  0
LINE
  5
8D
100
AcDbEntity
  8
0
100
AcDbLine
 10
-0.189789
 20
0.675
 30
0.0
 11
-0.331211
 21
0.675
 31
0.0
  0
LINE
  5
8E
100
AcDbEntity
  8
0
100
AcDbLine
 10
-0.189789
 20
0.725
 30
0.0
 11
-0.331211
 21
0.725
 31
0.0
  0
CIRCLE
  5
8F
100
AcDbEntity
  8
0
100
AcDbCircle
 10
-0.2605
 20
0.7
 30
0.0
 40
0.075
  0
CIRCLE
  5
90
100
AcDbEntity
  8
0
100
AcDbCircle
 10
-0.2605
 20
0.7
 30
0.0
 40
0.077
  0
LINE
  5
91
100
AcDbEntity
  8
0
100
AcDbLine
 10
-0.331211
 20
0.872
 30
0.0
 11
-0.331211
 21
0.922
 31
0.0
  0
LINE
  5
92
100
AcDbEntity
  8
0
100
AcDbLine
 10
-0.331211
 20
0.675
 30
0.0
 11
-0.331211
 21
0.725
 31
0.0
  0
LINE
  5
93
100
AcDbEntity
  8
0
100
AcDbLine
 10
-0.189789
 20
0.922
 30
0.0
 11
-0.189789
 21
0.872
 31
0.0
  0
LINE
  5
94
100
AcDbEntity
  8
0
100
AcDbLine
 10
-0.189789
 20
0.725
 30
0.0
 11
-0.189789
 21
0.675
 31
0.0
  0
TEXT
  5
95
100
AcDbEntity
  8
0
100
AcDbText
 10
-0.1879
 20
0.004167
 30
0.0
 40
0.0125
  1
C:\MS\PCON_5.DWG
 72
     2
 11
-0.004567
 21
0.0
 31
0.0
100
AcDbText
 73
     1
  0
ENDBLK
  5
97
100
AcDbEntity
  8
0
100
AcDbBlockEnd
  0
ENDSEC
  0
SECTION
  2
ENTITIES
  0
LINE
  5
49
100
AcDbEntity
  8
0
100
AcDbLine
 10
-1.9
 20
2.0
 30
0.0
 11
1.9
 21
2.0
 31
0.0
  0
LINE
  5
4A
100
AcDbEntity
  8
0
100
AcDbLine
 10
-1.9
 20
-2.0
 30
0.0
 11
1.9
 21
-2.0
 31
0.0
  0
LINE
  5
4B
100
AcDbEntity
  8
0
100
AcDbLine
 10
2.025
 20
1.875
 30
0.0
 11
2.025
 21
-1.875
 31
0.0
  0
LINE
  5
4C
100
AcDbEntity
  8
0
100
AcDbLine
 10
-2.025
 20
1.875
 30
0.0
 11
-2.025
 21
-1.875
 31
0.0
  0
ARC
  5
4E
100
AcDbEntity
  8
0
100
AcDbCircle
 10
1.9
 20
-1.875
 30
0.0
 40
0.125
100
AcDbArc
 50
270.0
 51
0.0
  0
ARC
  5
4F
100
AcDbEntity
  8
0
100
AcDbCircle
 10
1.9
 20
1.875
 30
0.0
 40
0.125
100
AcDbArc
 50
0.0
 51
90.0
  0
ARC
  5
50
100
AcDbEntity
  8
0
100
AcDbCircle
 10
-1.9
 20
1.875
 30
0.0
 40
0.125
100
AcDbArc
 50
90.0
 51
180.0
  0
ARC
  5
51
100
AcDbEntity
  8
0
100
AcDbCircle
 10
-1.9
 20
-1.875
 30
0.0
 40
0.125
100
AcDbArc
 50
180.0
 51
270.0
  0
ARC
  5
54
100
AcDbEntity
  8
0
100
AcDbCircle
 10
0.0
 20
-0.67897
 30
0.0
 40
1.73353
100
AcDbArc
 50
229.644926
 51
310.355074
  0
ARC
  5
55
100
AcDbEntity
  8
0
100
AcDbCircle
 10
0.0
 20
0.67897
 30
0.0
 40
1.73353
100
AcDbArc
 50
49.644926
 51
130.355074
  0
CIRCLE
  5
59
100
AcDbEntity
  8
0
100
AcDbCircle
 10
0.236
 20
2.165
 30
0.0
 40
0.088
  0
CIRCLE
  5
5B
100
AcDbEntity
  8
0
100
AcDbCircle
 10
-0.236
 20
-2.165
 30
0.0
 40
0.088
  0
LINE
  5
5C
100
AcDbEntity
  8
0
100
AcDbLine
 10
-1.946875
 20
1.796875
 30
0.0
 11
-1.946875
 21
-1.796875
 31
0.0
  0
LINE
  5
5D
100
AcDbEntity
  8
0
100
AcDbLine
 10
-1.821875
 20
1.921875
 30
0.0
 11
1.821875
 21
1.921875
 31
0.0
  0
LINE
  5
5E
100
AcDbEntity
  8
0
100
AcDbLine
 10
1.946875
 20
1.796875
 30
0.0
 11
1.946875
 21
-1.796875
 31
0.0
  0
LINE
  5
5F
100
AcDbEntity
  8
0
100
AcDbLine
 10
-1.821875
 20
-1.921875
 30
0.0
 11
1.821875
 21
-1.921875
 31
0.0
  0
ARC
  5
63
100
AcDbEntity
  8
0
100
AcDbCircle
 10
1.821875
 20
1.796875
 30
0.0
 40
0.125
100
AcDbArc
 50
0.0
 51
90.0
  0
ARC
  5
64
100
AcDbEntity
  8
0
100
AcDbCircle
 10
-1.821875
 20
1.796875
 30
0.0
 40
0.125
100
AcDbArc
 50
90.0
 51
180.0
  0
ARC
  5
65
100
AcDbEntity
  8
0
100
AcDbCircle
 10
-1.821875
 20
-1.796875
 30
0.0
 40
0.125
100
AcDbArc
 50
180.0
 51
270.0
  0
ARC
  5
66
100
AcDbEntity
  8
0
100
AcDbCircle
 10
1.821875
 20
-1.796875
 30
0.0
 40
0.125
100
AcDbArc
 50
270.0
 51
0.0
  0
LINE
  5
67
100
AcDbEntity
  8
CEN
  6
CONTINUOUS
100
AcDbLine
 10
-0.326
 20
-2.165
 30
0.0
 11
-0.146
 21
-2.165
 31
0.0
  0
LINE
  5
68
100
AcDbEntity
  8
CEN
  6
CONTINUOUS
100
AcDbLine
 10
-0.236
 20
-2.255
 30
0.0
 11
-0.236
 21
-2.075
 31
0.0
  0
LINE
  5
69
100
AcDbEntity
  8
CEN
  6
CONTINUOUS
100
AcDbLine
 10
0.146
 20
2.165
 30
0.0
 11
0.326
 21
2.165
 31
0.0
  0
LINE
  5
6A
100
AcDbEntity
  8
CEN
  6
CONTINUOUS
100
AcDbLine
 10
0.236
 20
2.075
 30
0.0
 11
0.236
 21
2.255
 31
0.0
  0
INSERT
  5
98
100
AcDbEntity
  8
0
100
AcDbBlockReference
  2
PCON_5
 10
-0.56056
 20
1.76378
 30
0.0
 50
90.0
  0
INSERT
  5
9D
100
AcDbEntity
  8
0
100
AcDbBlockReference
  2
PCON_5
 10
1.71004
 20
1.76378
 30
0.0
 50
90.0
  0
LINE
  5
9F
100
AcDbEntity
  8
0
100
AcDbLine
 10
-1.00138
 20
-1.52756
 30
0.0
 11
1.43862
 21
-1.52756
 31
0.0
  0
LINE
  5
A0
100
AcDbEntity
  8
0
100
AcDbLine
 10
-1.00138
 20
-1.2126
 30
0.0
 11
1.43862
 21
-1.2126
 31
0.0
  0
LINE
  5
A1
100
AcDbEntity
  8
0
100
AcDbLine
 10
-1.08012
 20
-1.1876
 30
0.0
 11
1.35988
 21
-1.1876
 31
0.0
  0
LINE
  5
A3
100
AcDbEntity
  8
0
100
AcDbLine
 10
-1.08012
 20
-0.87264
 30
0.0
 11
1.35988
 21
-0.87264
 31
0.0
  0
LINE
  5
A5
100
AcDbEntity
  8
0
100
AcDbLine
 10
-1.00138
 20
-1.2126
 30
0.0
 11
-1.00138
 21
-1.52756
 31
0.0
  0
LINE
  5
A6
100
AcDbEntity
  8
0
100
AcDbLine
 10
-1.08012
 20
-0.87264
 30
0.0
 11
-1.08012
 21
-1.1876
 31
0.0
  0
LINE
  5
A7
100
AcDbEntity
  8
0
100
AcDbLine
 10
1.35988
 20
-0.87264
 30
0.0
 11
1.35988
 21
-1.1876
 31
0.0
  0
LINE
  5
A8
100
AcDbEntity
  8
0
100
AcDbLine
 10
1.43862
 20
-1.2126
 30
0.0
 11
1.43862
 21
-1.52756
 31
0.0
  0
TEXT
  5
AC
100
AcDbEntity
  8
TEXT
100
AcDbText
 10
0.675
 20
-1.85
 30
0.0
 40
0.075
  1
C:\MS\BLOCK_IO.DWG
 72
     2
 11
1.9
 21
-1.875
 31
0.0
100
AcDbText
 73
     1
  0
TEXT
  5
AF
100
AcDbEntity
  8
0
100
AcDbText
 10
-1.125
 20
0.523
 30
0.0
 40
0.15
  1
G&L Motion Control
 72
     1
 11
0.0
 21
0.598
 31
0.0
100
AcDbText
 73
     2
  0
LINE
  5
BB
100
AcDbEntity
  8
0
100
AcDbLine
 10
1.35948
 20
-0.87264
 30
0.0
 11
1.35948
 21
-1.1876
 31
0.0
  0
CIRCLE
  5
BD
100
AcDbEntity
  8
0
100
AcDbCircle
 10
-0.87682
 20
-1.03012
 30
0.0
 40
0.0725
  0
LINE
  5
C8
100
AcDbEntity
  8
0
100
AcDbLine
 10
-0.931195
 20
-1.03012
 30
0.0
 11
-0.822445
 21
-1.03012
 31
0.0
  0
CIRCLE
  5
C9
100
AcDbEntity
  8
0
100
AcDbCircle
 10
-0.87682
 20
-1.03012
 30
0.0
 40
0.054375
  0
LINE
  5
D0
100
AcDbEntity
  8
0
100
AcDbLine
 10
-0.929739
 20
-1.01762
 30
0.0
 11
-0.823901
 21
-1.01762
 31
0.0
  0
LINE
  5
D1
100
AcDbEntity
  8
0
100
AcDbLine
 10
-0.929739
 20
-1.04262
 30
0.0
 11
-0.823901
 21
-1.04262
 31
0.0
  0
LINE
  5
D2
100
AcDbEntity
  8
0
100
AcDbLine
 10
-0.823901
 20
-1.01762
 30
0.0
 11
-0.823901
 21
-1.04262
 31
0.0
  0
LINE
  5
D3
100
AcDbEntity
  8
0
100
AcDbLine
 10
-0.929739
 20
-1.01762
 30
0.0
 11
-0.929739
 21
-1.04262
 31
0.0
  0
SOLID
  5
D4
100
AcDbEntity
  8
0
100
AcDbTrace
 10
-0.929739
 20
-1.01762
 30
0.0
 11
-0.823901
 21
-1.01762
 31
0.0
 12
-0.929739
 22
-1.04262
 32
0.0
 13
-0.823901
 23
-1.04262
 33
0.0
  0
SOLID
  5
D5
100
AcDbEntity
  8
0
100
AcDbTrace
 10
-0.726439
 20
-1.01762
 30
0.0
 11
-0.620601
 21
-1.01762
 31
0.0
 12
-0.726439
 22
-1.04262
 32
0.0
 13
-0.620601
 23
-1.04262
 33
0.0
  0
LINE
  5
D6
100
AcDbEntity
  8
0
100
AcDbLine
 10
-0.726439
 20
-1.04262
 30
0.0
 11
-0.620601
 21
-1.04262
 31
0.0
  0
LINE
  5
D7
100
AcDbEntity
  8
0
100
AcDbLine
 10
-0.727895
 20
-1.03012
 30
0.0
 11
-0.619145
 21
-1.03012
 31
0.0
  0
LINE
  5
D8
100
AcDbEntity
  8
0
100
AcDbLine
 10
-0.726439
 20
-1.01762
 30
0.0
 11
-0.620601
 21
-1.01762
 31
0.0
  0
CIRCLE
  5
D9
100
AcDbEntity
  8
0
100
AcDbCircle
 10
-0.67352
 20
-1.03012
 30
0.0
 40
0.054375
  0
CIRCLE
  5
DA
100
AcDbEntity
  8
0
100
AcDbCircle
 10
-0.67352
 20
-1.03012
 30
0.0
 40
0.0725
  0
LINE
  5
DB
100
AcDbEntity
  8
0
100
AcDbLine
 10
-0.726439
 20
-1.01762
 30
0.0
 11
-0.726439
 21
-1.04262
 31
0.0
  0
LINE
  5
DC
100
AcDbEntity
  8
0
100
AcDbLine
 10
-0.620601
 20
-1.01762
 30
0.0
 11
-0.620601
 21
-1.04262
 31
0.0
  0
SOLID
  5
DD
100
AcDbEntity
  8
0
100
AcDbTrace
 10
-0.523139
 20
-1.01762
 30
0.0
 11
-0.417301
 21
-1.01762
 31
0.0
 12
-0.523139
 22
-1.04262
 32
0.0
 13
-0.417301
 23
-1.04262
 33
0.0
  0
LINE
  5
DE
100
AcDbEntity
  8
0
100
AcDbLine
 10
-0.523139
 20
-1.04262
 30
0.0
 11
-0.417301
 21
-1.04262
 31
0.0
  0
LINE
  5
DF
100
AcDbEntity
  8
0
100
AcDbLine
 10
-0.524595
 20
-1.03012
 30
0.0
 11
-0.415845
 21
-1.03012
 31
0.0
  0
LINE
  5
E0
100
AcDbEntity
  8
0
100
AcDbLine
 10
-0.523139
 20
-1.01762
 30
0.0
 11
-0.417301
 21
-1.01762
 31
0.0
  0
CIRCLE
  5
E1
100
AcDbEntity
  8
0
100
AcDbCircle
 10
-0.47022
 20
-1.03012
 30
0.0
 40
0.054375
  0
CIRCLE
  5
E2
100
AcDbEntity
  8
0
100
AcDbCircle
 10
-0.47022
 20
-1.03012
 30
0.0
 40
0.0725
  0
LINE
  5
E3
100
AcDbEntity
  8
0
100
AcDbLine
 10
-0.523139
 20
-1.01762
 30
0.0
 11
-0.523139
 21
-1.04262
 31
0.0
  0
LINE
  5
E4
100
AcDbEntity
  8
0
100
AcDbLine
 10
-0.417301
 20
-1.01762
 30
0.0
 11
-0.417301
 21
-1.04262
 31
0.0
  0
SOLID
  5
E5
100
AcDbEntity
  8
0
100
AcDbTrace
 10
-0.319839
 20
-1.01762
 30
0.0
 11
-0.214001
 21
-1.01762
 31
0.0
 12
-0.319839
 22
-1.04262
 32
0.0
 13
-0.214001
 23
-1.04262
 33
0.0
  0
LINE
  5
E6
100
AcDbEntity
  8
0
100
AcDbLine
 10
-0.319839
 20
-1.04262
 30
0.0
 11
-0.214001
 21
-1.04262
 31
0.0
  0
LINE
  5
E7
100
AcDbEntity
  8
0
100
AcDbLine
 10
-0.321295
 20
-1.03012
 30
0.0
 11
-0.212545
 21
-1.03012
 31
0.0
  0
LINE
  5
E8
100
AcDbEntity
  8
0
100
AcDbLine
 10
-0.319839
 20
-1.01762
 30
0.0
 11
-0.214001
 21
-1.01762
 31
0.0
  0
CIRCLE
  5
E9
100
AcDbEntity
  8
0
100
AcDbCircle
 10
-0.26692
 20
-1.03012
 30
0.0
 40
0.054375
  0
CIRCLE
  5
EA
100
AcDbEntity
  8
0
100
AcDbCircle
 10
-0.26692
 20
-1.03012
 30
0.0
 40
0.0725
  0
LINE
  5
EB
100
AcDbEntity
  8
0
100
AcDbLine
 10
-0.319839
 20
-1.01762
 30
0.0
 11
-0.319839
 21
-1.04262
 31
0.0
  0
LINE
  5
EC
100
AcDbEntity
  8
0
100
AcDbLine
 10
-0.214001
 20
-1.01762
 30
0.0
 11
-0.214001
 21
-1.04262
 31
0.0
  0
SOLID
  5
ED
100
AcDbEntity
  8
0
100
AcDbTrace
 10
-0.116539
 20
-1.01762
 30
0.0
 11
-0.010701
 21
-1.01762
 31
0.0
 12
-0.116539
 22
-1.04262
 32
0.0
 13
-0.010701
 23
-1.04262
 33
0.0
  0
LINE
  5
EE
100
AcDbEntity
  8
0
100
AcDbLine
 10
-0.116539
 20
-1.04262
 30
0.0
 11
-0.010701
 21
-1.04262
 31
0.0
  0
LINE
  5
EF
100
AcDbEntity
  8
0
100
AcDbLine
 10
-0.117995
 20
-1.03012
 30
0.0
 11
-0.009245
 21
-1.03012
 31
0.0
  0
LINE
  5
F0
100
AcDbEntity
  8
0
100
AcDbLine
 10
-0.116539
 20
-1.01762
 30
0.0
 11
-0.010701
 21
-1.01762
 31
0.0
  0
CIRCLE
  5
F1
100
AcDbEntity
  8
0
100
AcDbCircle
 10
-0.06362
 20
-1.03012
 30
0.0
 40
0.054375
  0
CIRCLE
  5
F2
100
AcDbEntity
  8
0
100
AcDbCircle
 10
-0.06362
 20
-1.03012
 30
0.0
 40
0.0725
  0
LINE
  5
F3
100
AcDbEntity
  8
0
100
AcDbLine
 10
-0.116539
 20
-1.01762
 30
0.0
 11
-0.116539
 21
-1.04262
 31
0.0
  0
LINE
  5
F4
100
AcDbEntity
  8
0
100
AcDbLine
 10
-0.010701
 20
-1.01762
 30
0.0
 11
-0.010701
 21
-1.04262
 31
0.0
  0
SOLID
  5
F5
100
AcDbEntity
  8
0
100
AcDbTrace
 10
0.086761
 20
-1.01762
 30
0.0
 11
0.192599
 21
-1.01762
 31
0.0
 12
0.086761
 22
-1.04262
 32
0.0
 13
0.192599
 23
-1.04262
 33
0.0
  0
LINE
  5
F6
100
AcDbEntity
  8
0
100
AcDbLine
 10
0.086761
 20
-1.04262
 30
0.0
 11
0.192599
 21
-1.04262
 31
0.0
  0
LINE
  5
F7
100
AcDbEntity
  8
0
100
AcDbLine
 10
0.085305
 20
-1.03012
 30
0.0
 11
0.194055
 21
-1.03012
 31
0.0
  0
LINE
  5
F8
100
AcDbEntity
  8
0
100
AcDbLine
 10
0.086761
 20
-1.01762
 30
0.0
 11
0.192599
 21
-1.01762
 31
0.0
  0
CIRCLE
  5
F9
100
AcDbEntity
  8
0
100
AcDbCircle
 10
0.13968
 20
-1.03012
 30
0.0
 40
0.054375
  0
CIRCLE
  5
FA
100
AcDbEntity
  8
0
100
AcDbCircle
 10
0.13968
 20
-1.03012
 30
0.0
 40
0.0725
  0
LINE
  5
FB
100
AcDbEntity
  8
0
100
AcDbLine
 10
0.086761
 20
-1.01762
 30
0.0
 11
0.086761
 21
-1.04262
 31
0.0
  0
LINE
  5
FC
100
AcDbEntity
  8
0
100
AcDbLine
 10
0.192599
 20
-1.01762
 30
0.0
 11
0.192599
 21
-1.04262
 31
0.0
  0
SOLID
  5
FD
100
AcDbEntity
  8
0
100
AcDbTrace
 10
0.290061
 20
-1.01762
 30
0.0
 11
0.395899
 21
-1.01762
 31
0.0
 12
0.290061
 22
-1.04262
 32
0.0
 13
0.395899
 23
-1.04262
 33
0.0
  0
LINE
  5
FE
100
AcDbEntity
  8
0
100
AcDbLine
 10
0.290061
 20
-1.04262
 30
0.0
 11
0.395899
 21
-1.04262
 31
0.0
  0
LINE
  5
FF
100
AcDbEntity
  8
0
100
AcDbLine
 10
0.288605
 20
-1.03012
 30
0.0
 11
0.397355
 21
-1.03012
 31
0.0
  0
LINE
  5
100
100
AcDbEntity
  8
0
100
AcDbLine
 10
0.290061
 20
-1.01762
 30
0.0
 11
0.395899
 21
-1.01762
 31
0.0
  0
CIRCLE
  5
101
100
AcDbEntity
  8
0
100
AcDbCircle
 10
0.34298
 20
-1.03012
 30
0.0
 40
0.054375
  0
CIRCLE
  5
102
100
AcDbEntity
  8
0
100
AcDbCircle
 10
0.34298
 20
-1.03012
 30
0.0
 40
0.0725
  0
LINE
  5
103
100
AcDbEntity
  8
0
100
AcDbLine
 10
0.290061
 20
-1.01762
 30
0.0
 11
0.290061
 21
-1.04262
 31
0.0
  0
LINE
  5
104
100
AcDbEntity
  8
0
100
AcDbLine
 10
0.395899
 20
-1.01762
 30
0.0
 11
0.395899
 21
-1.04262
 31
0.0
  0
SOLID
  5
105
100
AcDbEntity
  8
0
100
AcDbTrace
 10
0.493361
 20
-1.01762
 30
0.0
 11
0.599199
 21
-1.01762
 31
0.0
 12
0.493361
 22
-1.04262
 32
0.0
 13
0.599199
 23
-1.04262
 33
0.0
  0
LINE
  5
106
100
AcDbEntity
  8
0
100
AcDbLine
 10
0.493361
 20
-1.04262
 30
0.0
 11
0.599199
 21
-1.04262
 31
0.0
  0
LINE
  5
107
100
AcDbEntity
  8
0
100
AcDbLine
 10
0.491905
 20
-1.03012
 30
0.0
 11
0.600655
 21
-1.03012
 31
0.0
  0
LINE
  5
108
100
AcDbEntity
  8
0
100
AcDbLine
 10
0.493361
 20
-1.01762
 30
0.0
 11
0.599199
 21
-1.01762
 31
0.0
  0
CIRCLE
  5
109
100
AcDbEntity
  8
0
100
AcDbCircle
 10
0.54628
 20
-1.03012
 30
0.0
 40
0.054375
  0
CIRCLE
  5
10A
100
AcDbEntity
  8
0
100
AcDbCircle
 10
0.54628
 20
-1.03012
 30
0.0
 40
0.0725
  0
LINE
  5
10B
100
AcDbEntity
  8
0
100
AcDbLine
 10
0.493361
 20
-1.01762
 30
0.0
 11
0.493361
 21
-1.04262
 31
0.0
  0
LINE
  5
10C
100
AcDbEntity
  8
0
100
AcDbLine
 10
0.599199
 20
-1.01762
 30
0.0
 11
0.599199
 21
-1.04262
 31
0.0
  0
SOLID
  5
10D
100
AcDbEntity
  8
0
100
AcDbTrace
 10
0.696661
 20
-1.01762
 30
0.0
 11
0.802499
 21
-1.01762
 31
0.0
 12
0.696661
 22
-1.04262
 32
0.0
 13
0.802499
 23
-1.04262
 33
0.0
  0
LINE
  5
10E
100
AcDbEntity
  8
0
100
AcDbLine
 10
0.696661
 20
-1.04262
 30
0.0
 11
0.802499
 21
-1.04262
 31
0.0
  0
LINE
  5
10F
100
AcDbEntity
  8
0
100
AcDbLine
 10
0.695205
 20
-1.03012
 30
0.0
 11
0.803955
 21
-1.03012
 31
0.0
  0
LINE
  5
110
100
AcDbEntity
  8
0
100
AcDbLine
 10
0.696661
 20
-1.01762
 30
0.0
 11
0.802499
 21
-1.01762
 31
0.0
  0
CIRCLE
  5
111
100
AcDbEntity
  8
0
100
AcDbCircle
 10
0.74958
 20
-1.03012
 30
0.0
 40
0.054375
  0
CIRCLE
  5
112
100
AcDbEntity
  8
0
100
AcDbCircle
 10
0.74958
 20
-1.03012
 30
0.0
 40
0.0725
  0
LINE
  5
113
100
AcDbEntity
  8
0
100
AcDbLine
 10
0.696661
 20
-1.01762
 30
0.0
 11
0.696661
 21
-1.04262
 31
0.0
  0
LINE
  5
114
100
AcDbEntity
  8
0
100
AcDbLine
 10
0.802499
 20
-1.01762
 30
0.0
 11
0.802499
 21
-1.04262
 31
0.0
  0
SOLID
  5
115
100
AcDbEntity
  8
0
100
AcDbTrace
 10
0.899961
 20
-1.01762
 30
0.0
 11
1.005799
 21
-1.01762
 31
0.0
 12
0.899961
 22
-1.04262
 32
0.0
 13
1.005799
 23
-1.04262
 33
0.0
  0
LINE
  5
116
100
AcDbEntity
  8
0
100
AcDbLine
 10
0.899961
 20
-1.04262
 30
0.0
 11
1.005799
 21
-1.04262
 31
0.0
  0
LINE
  5
117
100
AcDbEntity
  8
0
100
AcDbLine
 10
0.898505
 20
-1.03012
 30
0.0
 11
1.007255
 21
-1.03012
 31
0.0
  0
LINE
  5
118
100
AcDbEntity
  8
0
100
AcDbLine
 10
0.899961
 20
-1.01762
 30
0.0
 11
1.005799
 21
-1.01762
 31
0.0
  0
CIRCLE
  5
119
100
AcDbEntity
  8
0
100
AcDbCircle
 10
0.95288
 20
-1.03012
 30
0.0
 40
0.054375
  0
CIRCLE
  5
11A
100
AcDbEntity
  8
0
100
AcDbCircle
 10
0.95288
 20
-1.03012
 30
0.0
 40
0.0725
  0
LINE
  5
11B
100
AcDbEntity
  8
0
100
AcDbLine
 10
0.899961
 20
-1.01762
 30
0.0
 11
0.899961
 21
-1.04262
 31
0.0
  0
LINE
  5
11C
100
AcDbEntity
  8
0
100
AcDbLine
 10
1.005799
 20
-1.01762
 30
0.0
 11
1.005799
 21
-1.04262
 31
0.0
  0
SOLID
  5
11D
100
AcDbEntity
  8
0
100
AcDbTrace
 10
1.103261
 20
-1.01762
 30
0.0
 11
1.209099
 21
-1.01762
 31
0.0
 12
1.103261
 22
-1.04262
 32
0.0
 13
1.209099
 23
-1.04262
 33
0.0
  0
LINE
  5
11E
100
AcDbEntity
  8
0
100
AcDbLine
 10
1.103261
 20
-1.04262
 30
0.0
 11
1.209099
 21
-1.04262
 31
0.0
  0
LINE
  5
11F
100
AcDbEntity
  8
0
100
AcDbLine
 10
1.101805
 20
-1.03012
 30
0.0
 11
1.210555
 21
-1.03012
 31
0.0
  0
LINE
  5
120
100
AcDbEntity
  8
0
100
AcDbLine
 10
1.103261
 20
-1.01762
 30
0.0
 11
1.209099
 21
-1.01762
 31
0.0
  0
CIRCLE
  5
121
100
AcDbEntity
  8
0
100
AcDbCircle
 10
1.15618
 20
-1.03012
 30
0.0
 40
0.054375
  0
CIRCLE
  5
122
100
AcDbEntity
  8
0
100
AcDbCircle
 10
1.15618
 20
-1.03012
 30
0.0
 40
0.0725
  0
LINE
  5
123
100
AcDbEntity
  8
0
100
AcDbLine
 10
1.103261
 20
-1.01762
 30
0.0
 11
1.103261
 21
-1.04262
 31
0.0
  0
LINE
  5
124
100
AcDbEntity
  8
0
100
AcDbLine
 10
1.209099
 20
-1.01762
 30
0.0
 11
1.209099
 21
-1.04262
 31
0.0
  0
CIRCLE
  5
125
100
AcDbEntity
  8
0
100
AcDbCircle
 10
-0.59438
 20
-1.37008
 30
0.0
 40
0.0725
  0
CIRCLE
  5
126
100
AcDbEntity
  8
0
100
AcDbCircle
 10
-0.59438
 20
-1.37008
 30
0.0
 40
0.054375
  0
LINE
  5
127
100
AcDbEntity
  8
0
100
AcDbLine
 10
-0.647299
 20
-1.35758
 30
0.0
 11
-0.541461
 21
-1.35758
 31
0.0
  0
LINE
  5
128
100
AcDbEntity
  8
0
100
AcDbLine
 10
-0.648755
 20
-1.37008
 30
0.0
 11
-0.540005
 21
-1.37008
 31
0.0
  0
LINE
  5
129
100
AcDbEntity
  8
0
100
AcDbLine
 10
-0.647299
 20
-1.38258
 30
0.0
 11
-0.541461
 21
-1.38258
 31
0.0
  0
SOLID
  5
12A
100
AcDbEntity
  8
0
100
AcDbTrace
 10
-0.647299
 20
-1.35758
 30
0.0
 11
-0.541461
 21
-1.35758
 31
0.0
 12
-0.647299
 22
-1.38258
 32
0.0
 13
-0.541461
 23
-1.38258
 33
0.0
  0
SOLID
  5
12B
100
AcDbEntity
  8
0
100
AcDbTrace
 10
-0.850599
 20
-1.35758
 30
0.0
 11
-0.744761
 21
-1.35758
 31
0.0
 12
-0.850599
 22
-1.38258
 32
0.0
 13
-0.744761
 23
-1.38258
 33
0.0
  0
LINE
  5
12C
100
AcDbEntity
  8
0
100
AcDbLine
 10
-0.850599
 20
-1.38258
 30
0.0
 11
-0.744761
 21
-1.38258
 31
0.0
  0
LINE
  5
12D
100
AcDbEntity
  8
0
100
AcDbLine
 10
-0.852055
 20
-1.37008
 30
0.0
 11
-0.743305
 21
-1.37008
 31
0.0
  0
LINE
  5
12E
100
AcDbEntity
  8
0
100
AcDbLine
 10
-0.850599
 20
-1.35758
 30
0.0
 11
-0.744761
 21
-1.35758
 31
0.0
  0
CIRCLE
  5
12F
100
AcDbEntity
  8
0
100
AcDbCircle
 10
-0.79768
 20
-1.37008
 30
0.0
 40
0.054375
  0
CIRCLE
  5
130
100
AcDbEntity
  8
0
100
AcDbCircle
 10
-0.79768
 20
-1.37008
 30
0.0
 40
0.0725
  0
LINE
  5
131
100
AcDbEntity
  8
0
100
AcDbLine
 10
-0.850599
 20
-1.35758
 30
0.0
 11
-0.850599
 21
-1.38258
 31
0.0
  0
LINE
  5
132
100
AcDbEntity
  8
0
100
AcDbLine
 10
-0.744761
 20
-1.35758
 30
0.0
 11
-0.744761
 21
-1.38258
 31
0.0
  0
LINE
  5
133
100
AcDbEntity
  8
0
100
AcDbLine
 10
-0.647299
 20
-1.35758
 30
0.0
 11
-0.647299
 21
-1.38258
 31
0.0
  0
CIRCLE
  5
134
100
AcDbEntity
  8
0
100
AcDbCircle
 10
-0.18778
 20
-1.37008
 30
0.0
 40
0.0725
  0
CIRCLE
  5
135
100
AcDbEntity
  8
0
100
AcDbCircle
 10
-0.39108
 20
-1.37008
 30
0.0
 40
0.0725
  0
CIRCLE
  5
136
100
AcDbEntity
  8
0
100
AcDbCircle
 10
-0.39108
 20
-1.37008
 30
0.0
 40
0.054375
  0
LINE
  5
137
100
AcDbEntity
  8
0
100
AcDbLine
 10
-0.443999
 20
-1.35758
 30
0.0
 11
-0.338161
 21
-1.35758
 31
0.0
  0
LINE
  5
138
100
AcDbEntity
  8
0
100
AcDbLine
 10
-0.445455
 20
-1.37008
 30
0.0
 11
-0.336705
 21
-1.37008
 31
0.0
  0
LINE
  5
139
100
AcDbEntity
  8
0
100
AcDbLine
 10
-0.443999
 20
-1.38258
 30
0.0
 11
-0.338161
 21
-1.38258
 31
0.0
  0
SOLID
  5
13A
100
AcDbEntity
  8
0
100
AcDbTrace
 10
-0.443999
 20
-1.35758
 30
0.0
 11
-0.338161
 21
-1.35758
 31
0.0
 12
-0.443999
 22
-1.38258
 32
0.0
 13
-0.338161
 23
-1.38258
 33
0.0
  0
LINE
  5
13B
100
AcDbEntity
  8
0
100
AcDbLine
 10
-0.541461
 20
-1.35758
 30
0.0
 11
-0.541461
 21
-1.38258
 31
0.0
  0
LINE
  5
13C
100
AcDbEntity
  8
0
100
AcDbLine
 10
-0.443999
 20
-1.35758
 30
0.0
 11
-0.443999
 21
-1.38258
 31
0.0
  0
LINE
  5
13D
100
AcDbEntity
  8
0
100
AcDbLine
 10
-0.338161
 20
-1.35758
 30
0.0
 11
-0.338161
 21
-1.38258
 31
0.0
  0
CIRCLE
  5
13E
100
AcDbEntity
  8
0
100
AcDbCircle
 10
-0.18778
 20
-1.37008
 30
0.0
 40
0.054375
  0
LINE
  5
13F
100
AcDbEntity
  8
0
100
AcDbLine
 10
-0.240699
 20
-1.35758
 30
0.0
 11
-0.134861
 21
-1.35758
 31
0.0
  0
LINE
  5
140
100
AcDbEntity
  8
0
100
AcDbLine
 10
-0.242155
 20
-1.37008
 30
0.0
 11
-0.133405
 21
-1.37008
 31
0.0
  0
LINE
  5
141
100
AcDbEntity
  8
0
100
AcDbLine
 10
-0.240699
 20
-1.38258
 30
0.0
 11
-0.134861
 21
-1.38258
 31
0.0
  0
SOLID
  5
142
100
AcDbEntity
  8
0
100
AcDbTrace
 10
-0.240699
 20
-1.35758
 30
0.0
 11
-0.134861
 21
-1.35758
 31
0.0
 12
-0.240699
 22
-1.38258
 32
0.0
 13
-0.134861
 23
-1.38258
 33
0.0
  0
LINE
  5
143
100
AcDbEntity
  8
0
100
AcDbLine
 10
-0.240699
 20
-1.35758
 30
0.0
 11
-0.240699
 21
-1.38258
 31
0.0
  0
LINE
  5
144
100
AcDbEntity
  8
0
100
AcDbLine
 10
-0.134861
 20
-1.35758
 30
0.0
 11
-0.134861
 21
-1.38258
 31
0.0
  0
CIRCLE
  5
145
100
AcDbEntity
  8
0
100
AcDbCircle
 10
0.01552
 20
-1.37008
 30
0.0
 40
0.0725
  0
CIRCLE
  5
146
100
AcDbEntity
  8
0
100
AcDbCircle
 10
0.01552
 20
-1.37008
 30
0.0
 40
0.054375
  0
LINE
  5
147
100
AcDbEntity
  8
0
100
AcDbLine
 10
-0.037399
 20
-1.35758
 30
0.0
 11
0.068439
 21
-1.35758
 31
0.0
  0
LINE
  5
148
100
AcDbEntity
  8
0
100
AcDbLine
 10
-0.038855
 20
-1.37008
 30
0.0
 11
0.069895
 21
-1.37008
 31
0.0
  0
LINE
  5
149
100
AcDbEntity
  8
0
100
AcDbLine
 10
-0.037399
 20
-1.38258
 30
0.0
 11
0.068439
 21
-1.38258
 31
0.0
  0
SOLID
  5
14A
100
AcDbEntity
  8
0
100
AcDbTrace
 10
-0.037399
 20
-1.35758
 30
0.0
 11
0.068439
 21
-1.35758
 31
0.0
 12
-0.037399
 22
-1.38258
 32
0.0
 13
0.068439
 23
-1.38258
 33
0.0
  0
LINE
  5
14B
100
AcDbEntity
  8
0
100
AcDbLine
 10
-0.037399
 20
-1.35758
 30
0.0
 11
-0.037399
 21
-1.38258
 31
0.0
  0
LINE
  5
14C
100
AcDbEntity
  8
0
100
AcDbLine
 10
0.068439
 20
-1.35758
 30
0.0
 11
0.068439
 21
-1.38258
 31
0.0
  0
CIRCLE
  5
14D
100
AcDbEntity
  8
0
100
AcDbCircle
 10
0.82872
 20
-1.37008
 30
0.0
 40
0.0725
  0
CIRCLE
  5
14E
100
AcDbEntity
  8
0
100
AcDbCircle
 10
0.82872
 20
-1.37008
 30
0.0
 40
0.054375
  0
LINE
  5
14F
100
AcDbEntity
  8
0
100
AcDbLine
 10
0.775801
 20
-1.35758
 30
0.0
 11
0.881639
 21
-1.35758
 31
0.0
  0
LINE
  5
150
100
AcDbEntity
  8
0
100
AcDbLine
 10
0.774345
 20
-1.37008
 30
0.0
 11
0.883095
 21
-1.37008
 31
0.0
  0
LINE
  5
151
100
AcDbEntity
  8
0
100
AcDbLine
 10
0.775801
 20
-1.38258
 30
0.0
 11
0.881639
 21
-1.38258
 31
0.0
  0
SOLID
  5
152
100
AcDbEntity
  8
0
100
AcDbTrace
 10
0.775801
 20
-1.35758
 30
0.0
 11
0.881639
 21
-1.35758
 31
0.0
 12
0.775801
 22
-1.38258
 32
0.0
 13
0.881639
 23
-1.38258
 33
0.0
  0
CIRCLE
  5
153
100
AcDbEntity
  8
0
100
AcDbCircle
 10
0.42212
 20
-1.37008
 30
0.0
 40
0.0725
  0
CIRCLE
  5
154
100
AcDbEntity
  8
0
100
AcDbCircle
 10
0.42212
 20
-1.37008
 30
0.0
 40
0.054375
  0
LINE
  5
155
100
AcDbEntity
  8
0
100
AcDbLine
 10
0.369201
 20
-1.35758
 30
0.0
 11
0.475039
 21
-1.35758
 31
0.0
  0
LINE
  5
156
100
AcDbEntity
  8
0
100
AcDbLine
 10
0.367745
 20
-1.37008
 30
0.0
 11
0.476495
 21
-1.37008
 31
0.0
  0
LINE
  5
157
100
AcDbEntity
  8
0
100
AcDbLine
 10
0.369201
 20
-1.38258
 30
0.0
 11
0.475039
 21
-1.38258
 31
0.0
  0
SOLID
  5
158
100
AcDbEntity
  8
0
100
AcDbTrace
 10
0.369201
 20
-1.35758
 30
0.0
 11
0.475039
 21
-1.35758
 31
0.0
 12
0.369201
 22
-1.38258
 32
0.0
 13
0.475039
 23
-1.38258
 33
0.0
  0
CIRCLE
  5
159
100
AcDbEntity
  8
0
100
AcDbCircle
 10
0.21882
 20
-1.37008
 30
0.0
 40
0.0725
  0
CIRCLE
  5
15A
100
AcDbEntity
  8
0
100
AcDbCircle
 10
0.21882
 20
-1.37008
 30
0.0
 40
0.054375
  0
LINE
  5
15B
100
AcDbEntity
  8
0
100
AcDbLine
 10
0.165901
 20
-1.35758
 30
0.0
 11
0.271739
 21
-1.35758
 31
0.0
  0
LINE
  5
15C
100
AcDbEntity
  8
0
100
AcDbLine
 10
0.164445
 20
-1.37008
 30
0.0
 11
0.273195
 21
-1.37008
 31
0.0
  0
LINE
  5
15D
100
AcDbEntity
  8
0
100
AcDbLine
 10
0.165901
 20
-1.38258
 30
0.0
 11
0.271739
 21
-1.38258
 31
0.0
  0
SOLID
  5
15E
100
AcDbEntity
  8
0
100
AcDbTrace
 10
0.165901
 20
-1.35758
 30
0.0
 11
0.271739
 21
-1.35758
 31
0.0
 12
0.165901
 22
-1.38258
 32
0.0
 13
0.271739
 23
-1.38258
 33
0.0
  0
LINE
  5
15F
100
AcDbEntity
  8
0
100
AcDbLine
 10
0.165901
 20
-1.35758
 30
0.0
 11
0.165901
 21
-1.38258
 31
0.0
  0
LINE
  5
160
100
AcDbEntity
  8
0
100
AcDbLine
 10
0.271739
 20
-1.35758
 30
0.0
 11
0.271739
 21
-1.38258
 31
0.0
  0
LINE
  5
161
100
AcDbEntity
  8
0
100
AcDbLine
 10
0.369201
 20
-1.35758
 30
0.0
 11
0.369201
 21
-1.38258
 31
0.0
  0
CIRCLE
  5
162
100
AcDbEntity
  8
0
100
AcDbCircle
 10
0.62542
 20
-1.37008
 30
0.0
 40
0.0725
  0
CIRCLE
  5
163
100
AcDbEntity
  8
0
100
AcDbCircle
 10
0.62542
 20
-1.37008
 30
0.0
 40
0.054375
  0
LINE
  5
164
100
AcDbEntity
  8
0
100
AcDbLine
 10
0.572501
 20
-1.35758
 30
0.0
 11
0.678339
 21
-1.35758
 31
0.0
  0
LINE
  5
165
100
AcDbEntity
  8
0
100
AcDbLine
 10
0.571045
 20
-1.37008
 30
0.0
 11
0.679795
 21
-1.37008
 31
0.0
  0
LINE
  5
166
100
AcDbEntity
  8
0
100
AcDbLine
 10
0.572501
 20
-1.38258
 30
0.0
 11
0.678339
 21
-1.38258
 31
0.0
  0
SOLID
  5
167
100
AcDbEntity
  8
0
100
AcDbTrace
 10
0.572501
 20
-1.35758
 30
0.0
 11
0.678339
 21
-1.35758
 31
0.0
 12
0.572501
 22
-1.38258
 32
0.0
 13
0.678339
 23
-1.38258
 33
0.0
  0
LINE
  5
168
100
AcDbEntity
  8
0
100
AcDbLine
 10
0.475039
 20
-1.35758
 30
0.0
 11
0.475039
 21
-1.38258
 31
0.0
  0
LINE
  5
169
100
AcDbEntity
  8
0
100
AcDbLine
 10
0.572501
 20
-1.35758
 30
0.0
 11
0.572501
 21
-1.38258
 31
0.0
  0
LINE
  5
16A
100
AcDbEntity
  8
0
100
AcDbLine
 10
0.678339
 20
-1.35758
 30
0.0
 11
0.678339
 21
-1.38258
 31
0.0
  0
LINE
  5
16B
100
AcDbEntity
  8
0
100
AcDbLine
 10
0.775801
 20
-1.35758
 30
0.0
 11
0.775801
 21
-1.38258
 31
0.0
  0
CIRCLE
  5
16C
100
AcDbEntity
  8
0
100
AcDbCircle
 10
1.23532
 20
-1.37008
 30
0.0
 40
0.0725
  0
CIRCLE
  5
16D
100
AcDbEntity
  8
0
100
AcDbCircle
 10
1.03202
 20
-1.37008
 30
0.0
 40
0.0725
  0
CIRCLE
  5
16E
100
AcDbEntity
  8
0
100
AcDbCircle
 10
1.03202
 20
-1.37008
 30
0.0
 40
0.054375
  0
LINE
  5
16F
100
AcDbEntity
  8
0
100
AcDbLine
 10
0.979101
 20
-1.35758
 30
0.0
 11
1.084939
 21
-1.35758
 31
0.0
  0
LINE
  5
170
100
AcDbEntity
  8
0
100
AcDbLine
 10
0.977645
 20
-1.37008
 30
0.0
 11
1.086395
 21
-1.37008
 31
0.0
  0
LINE
  5
171
100
AcDbEntity
  8
0
100
AcDbLine
 10
0.979101
 20
-1.38258
 30
0.0
 11
1.084939
 21
-1.38258
 31
0.0
  0
SOLID
  5
172
100
AcDbEntity
  8
0
100
AcDbTrace
 10
0.979101
 20
-1.35758
 30
0.0
 11
1.084939
 21
-1.35758
 31
0.0
 12
0.979101
 22
-1.38258
 32
0.0
 13
1.084939
 23
-1.38258
 33
0.0
  0
LINE
  5
173
100
AcDbEntity
  8
0
100
AcDbLine
 10
0.881639
 20
-1.35758
 30
0.0
 11
0.881639
 21
-1.38258
 31
0.0
  0
LINE
  5
174
100
AcDbEntity
  8
0
100
AcDbLine
 10
0.979101
 20
-1.35758
 30
0.0
 11
0.979101
 21
-1.38258
 31
0.0
  0
LINE
  5
175
100
AcDbEntity
  8
0
100
AcDbLine
 10
1.084939
 20
-1.35758
 30
0.0
 11
1.084939
 21
-1.38258
 31
0.0
  0
CIRCLE
  5
176
100
AcDbEntity
  8
0
100
AcDbCircle
 10
1.23532
 20
-1.37008
 30
0.0
 40
0.054375
  0
LINE
  5
177
100
AcDbEntity
  8
0
100
AcDbLine
 10
1.182401
 20
-1.35758
 30
0.0
 11
1.288239
 21
-1.35758
 31
0.0
  0
LINE
  5
178
100
AcDbEntity
  8
0
100
AcDbLine
 10
1.180945
 20
-1.37008
 30
0.0
 11
1.289695
 21
-1.37008
 31
0.0
  0
LINE
  5
179
100
AcDbEntity
  8
0
100
AcDbLine
 10
1.182401
 20
-1.38258
 30
0.0
 11
1.288239
 21
-1.38258
 31
0.0
  0
SOLID
  5
17A
100
AcDbEntity
  8
0
100
AcDbTrace
 10
1.182401
 20
-1.35758
 30
0.0
 11
1.288239
 21
-1.35758
 31
0.0
 12
1.182401
 22
-1.38258
 32
0.0
 13
1.288239
 23
-1.38258
 33
0.0
  0
LINE
  5
17B
100
AcDbEntity
  8
0
100
AcDbLine
 10
1.182401
 20
-1.35758
 30
0.0
 11
1.182401
 21
-1.38258
 31
0.0
  0
LINE
  5
17C
100
AcDbEntity
  8
0
100
AcDbLine
 10
1.288239
 20
-1.35758
 30
0.0
 11
1.288239
 21
-1.38258
 31
0.0
  0
LINE
  5
17F
100
AcDbEntity
  8
0
100
AcDbLine
 10
1.5748
 20
0.879486
 30
0.0
 11
1.5748
 21
-0.18898
 31
0.0
  0
LINE
  5
180
100
AcDbEntity
  8
0
100
AcDbLine
 10
-1.5748
 20
0.879486
 30
0.0
 11
-1.5748
 21
-0.18898
 31
0.0
  0
LINE
  5
181
100
AcDbEntity
  8
0
100
AcDbLine
 10
-1.5748
 20
-0.18898
 30
0.0
 11
1.5748
 21
-0.18898
 31
0.0
  0
ARC
  5
186
100
AcDbEntity
  8
0
100
AcDbCircle
 10
0.0
 20
-1.475067
 30
0.0
 40
2.860887
100
AcDbArc
 50
57.287866
 51
122.712134
  0
TEXT
  5
192
100
AcDbEntity
  8
TEXT
100
AcDbText
 10
-1.4748
 20
-0.08898
 30
0.0
 40
0.075
  1
OUTPUT 24 VDC SOURCE
100
AcDbText
  0
CIRCLE
  5
196
100
AcDbEntity
  8
0
100
AcDbCircle
 10
1.203267
 20
0.69832
 30
0.0
 40
0.0375
  0
TEXT
  5
198
100
AcDbEntity
  8
TEXT
100
AcDbText
 10
1.1866
 20
0.67332
 30
0.0
 40
0.05
  1
R
 72
     1
 11
1.203267
 21
0.69832
 31
0.0
100
AcDbText
 73
     2
  0
ARC
  5
19C
100
AcDbEntity
  8
0
100
AcDbCircle
 10
1.5123
 20
0.879486
 30
0.0
 40
0.0625
100
AcDbArc
 50
0.0
 51
57.287866
  0
ARC
  5
19D
100
AcDbEntity
  8
0
100
AcDbCircle
 10
-1.5123
 20
0.879486
 30
0.0
 40
0.0625
100
AcDbArc
 50
122.712134
 51
180.0
  0
ENDSEC
  0
SECTION
  2
OBJECTS
  0
DICTIONARY
  5
C
100
AcDbDictionary
  3
ACAD_GROUP
350
D
  3
ACAD_MLINESTYLE
350
E
  0
DICTIONARY
  5
D
102
{ACAD_REACTORS
330
C
102
}
100
AcDbDictionary
  0
DICTIONARY
  5
E
102
{ACAD_REACTORS
330
C
102
}
100
AcDbDictionary
  3
STANDARD
350
13
  0
MLINESTYLE
  5
13
102
{ACAD_REACTORS
330
E
102
}
100
AcDbMlineStyle
  2
STANDARD
 70
     0
  3

 62
     0
 51
90.0
 52
90.0
 71
     2
 49
0.5
 62
   256
  6
BYLAYER
 49
-0.5
 62
   256
  6
BYLAYER
  0
ENDSEC
  0
EOF
